Song name
# A B C D E F G H I J K L M N O P Q R S T U V W X Y Z

Karma To Burn - One tab

Karma to burn - one (intro)

'Dropped D' - D A D G B E

----------------------------------------------|
----------------------------------------------|
----------------------------------------------|
----------------3-----------------------------|
---5-5h3--3-5h3-----------5-5h3---------------|
-0----------------------0----------0--5h6-5-5-|

----------------------------------------------|
----------------------------------------------|
----------------------------------------------|
----------------3-----------------------------|
---5-5h3--3-5h3-----------5-5h3---------------|
-0----------------------0----------0--5h6-5-5-|

-----------------------------------------------|
-----------------------------------------------|
-----------------------------------------------|
----------------6------------------------------|
---5-5h3--3-5h3-----------5-5h3----------------|
-0----------------------0-----------0--5h6-5-5-|


----------------------------------------------|
----------------------------------------------|
----------------------------------------------|
----------------3-----------------------------|
---5-5h3--3-5h3-----------5-5h3---------------|
-0----------------------0----------0--5h6-5-5-|
Tap to rate this tab
 
# A B C D E F G H I J K L M N O P Q R S T U V W X Y Z