Song name
# A B C D E F G H I J K L M N O P Q R S T U V W X Y Z

Kasabian - Man Of Simple Pleasures tab

-------------------------------------------------------------------------------
                             Man of simple pleasures - Kasabian
-------------------------------------------------------------------------------
Tabbed by: Kieran satchell
Email:Kazkieran@hotmail.co.uk

Tuning:Standard
Sorry, I only have worked out the main rifff and intro, I am working on the rest
please contact me if anyone can contribute and im sure something can be arrainged

e|-----------------------------------------------------2---------2---------------|
B|-----------------------------------------------------2---------2---------------|
G|-----------------------------------------------------2---------2---------------|
D|-------------------------------------------------------------------------------|
A|-4---4------3----3-------4---4------3---2--------------------------------------|
E|----------------------------------------------2---------2--2-------------------|


e|-----------------------------------------------------2---------2---------------|
B|-----------------------------------------------------2---------2---------------|
G|-----------------------------------------------------2---------2---------------|
D|-------------------------------------------------------------------------------|
A|-4---4------3----3-------4---4------3---2--------------------------------------|
E|----------------------------------------------2---------2--2-------------------|

e|----------2----------2----------2---------2--------------------------------------|
B|----------2----------2----------2---------2--------------------------------------|
G|----------2----------2----------2---------2--------------------------------------|
D|---------------------------------------------------------------------------------|
A|---4------------3----------------------------------------------------------------|
E|-------------------------2--2--------2--2----------------------------------------|
VERSE: follows a very repetative pattern ( you can pick up the rythem and timing) REPEATE THIS
e|-----------2--------2----------2----------2----------------------------------------|
B|-----------2--------2----------2----------2----------------------------------------|
G|-----------2--------2----------2----------2----------------------------------------|
D|-----------------------------------------------------------------------------------|
A|-----------------------------------------------------------------------------------|
E|------2--------2-2--------2-------2--2---------------------------------------------|
I know this seems kinda boring, but kasabian dosent focus
that much on complicated guitar riffs so i belive this is all there is to the verse
Tap to rate this tab
# A B C D E F G H I J K L M N O P Q R S T U V W X Y Z