Kassidy - The Lost tab

Ok, another Kassidy tab for you

Basically just an E chord for the intro with this underneath

E
------------------------------|
------------------------------|
------------------------------|
-----------------------12---14|
--------10----10/12-14--------|
--10-12----12-----------------|

But for the verse its just an E chord and an A chord so:

E                  A
I'm gonna take you down to where you once belonged

''
''
''

G               F#major       Fmajor      E
Now I try now I try to do the best that I can -- fill or your
                                                 own improved lead line

Presonally, i prefer to play this as a G chord and then move it down a semitone 
for each chord change e.g.
  G    F#   F    E
-----------------0
--3----2----1----0
--4----3----2----1
--5----4----3----2
--5----4----3----2
-----------------0

Another awesome, enjoy :D
Tap to rate this tab
 
# A B C D E F G H I J K L M N O P Q R S T U V W X Y Z