Song name
# A B C D E F G H I J K L M N O P Q R S T U V W X Y Z

Kat - Book tab

Hi!

Iíve got tab for you! ;)

Itís tab from my guitar teacher (his nick is ĎKatí). I think that it is quite good and
easy exerciseÖ This solo's name is "Ksiazka" ("The Book" in english). Enjoy playing ;)

Take D chord.

E|--2------2-------3-----3------0-----0----|
H|---3------3-------3-----3------2-----2---|
G|----2------2-------2-----2------3-----3--|
D|-0------0-------0-----0------0-----0-----|
A|-----------------------------------------|
E|-----------------------------------------|

Easy, isnít it?
Look Now! 

E|--2------2-------2-----2------2-----2-------2-----2-------2---|
H|---3------3-------3-----3------3-----3-------3-----3-------3--|
G|----2------2-------2-----2------0-----0-------0-----0-------2-|
D|-0------0------------------------------------------------0----|
A|----------------3-----3------2-----2-------1-----1------------|
E|--------------------------------------------------------------|

Try it in deferent speeds.
/Itís my first TAB/
Tap to rate this tab
 
# A B C D E F G H I J K L M N O P Q R S T U V W X Y Z