Song name
# A B C D E F G H I J K L M N O P Q R S T U V W X Y Z

Katchafire - Collie Herb Man tab

This is not 100% accurate but it can get you there. This is just the intro that is
repeated sometimes in the song.

Standard Tuning

---------------------------------------------|
---------------------------------------------|
-6p4-6/8--6p4-6~------6p4-6/8--6p4---6p4-----|
-------------6--------------------6-----6~---|
---------------------------------------------|
---------------------------------------------|

----------------------------------------------------|
-------------------------------------------------9--|
-6p4-6/8--6p4-6~--4h6~-(4)-----6p4-6/8--6p4-6p4-----|
-------------6-----------(6)---------------6---6----|
----------------------------------------------------|
----------------------------------------------------|


************************************

| /   slide up
| \   slide down
| h   hammer-on
| p   pull-off
| ~   vibrato
| +   harmonic
| x   Mute note
| b   Bend
| pb  Pre-bend
| br  Bend release
| pbr Pre-bend release
| brb Bend release bend
| ( ) Ghost Note

************************************
Tap to rate this tab
# A B C D E F G H I J K L M N O P Q R S T U V W X Y Z