Song name
# A B C D E F G H I J K L M N O P Q R S T U V W X Y Z

Kate Micucci - Taking Chances tab

This is my first tab, but I think it's pretty accurate.
(Fixed mistakes from first submission)

*Standard Tuning
*Capo on 3rd fret
*Listen to song for strumming

Note: This is tabbed with a capo, read above.

Intro x1
E|---------3-----------------------|
B|---1--1--1-----------------------|
G|---------2-----------------------|
D|---2-----3-----------------------|
A|---3--2--------------------------|
E|------3--------------------------|

Verse(Part 1) x2
E|---------3-----------------------|
B|---1--1--1-----------------------|
G|---------2-----------------------|
D|---2-----3-----------------------|
A|---3--2--------------------------|
E|------3--------------------------|
People are weird, They're getting weirder
Look in the mirror, It's not much clearer.

Verse(Part 2) x3
E|---3--3--------------------------|
B|---1-----------------------------|
G|---2-----------------------------|
D|---3-----------------------------|
A|------2--------------------------|
E|------3--------------------------|
Try to be good in the end, Find your reflection, my friend,
And soon you will see it's a good day for you.

Chorus 1 x4
E|---------3-----------------------|
B|---1--1--1-----------------------|
G|---------2-----------------------|
D|---2-----3-----------------------|
A|---3--2--------------------------|
E|------3--------------------------|
'Cause it's time for taking chances, Whatever may be.
Find out what romance is, And in the end you'll see...


Verse(Part 1) x2
E|---------3-----------------------|
B|---1--1--1-----------------------|
G|---------2-----------------------|
D|---2-----3-----------------------|
A|---3--2--------------------------|
E|------3--------------------------|
People behave just as they're supposed to
Try to be brave, nobody knows to

Verse(Part 2) x3
E|---3--3--------------------------|
B|---1-----------------------------|
G|---2-----------------------------|
D|---3-----------------------------|
A|------2--------------------------|
E|------3--------------------------|
Give up the games in the end, Everyone likes to pretend,
But soon you will see it's a good day for you

Chorus 1 x4
E|---------3-----------------------|
B|---1--1--1-----------------------|
G|---------2-----------------------|
D|---2-----3-----------------------|
A|---3--2--------------------------|
E|------3--------------------------|
'Cause it's time for taking chances, Whatever may be.
Find out what romance is, And in the end you'll see...

Chorus 2 x4
E|---------------------------------|
B|---1-----1-----0h1----1----------|
G|-2--2--------0------0------------|
D|--3----2--2---0------0-----------|
A|--------3------------------------|
E|---------------------------------|
And every time you hear a bell, Would you stop to think of me?
Wishing on a wishing well, Maybe then, in time, you'll see.

Interlude
E|------3-----3--3-----3-----------|
B|---1--1--1--1-----1--1-----------|
G|------2-----2--------2-----------|
D|---2--3--2--3-----2--3-----------|
A|---3-----3-----2--3--------------|
E|---------------3-----------------|
Do do do...

Verse(Part 1) x2
E|---------3-----------------------|
B|---1--1--1-----------------------|
G|---------2-----------------------|
D|---2-----3-----------------------|
A|---3--2--------------------------|
E|------3--------------------------|
Life can be grand, if you'll just let it,
So hand 'em your hand, you won't regret it.

Verse(Part 2) x3
E|---3--3--------------------------|
B|---1-----------------------------|
G|---2-----------------------------|
D|---3-----------------------------|
A|------2--------------------------|
E|------3--------------------------|
Nothing is better than this, It could just lead to a kiss,
And then you will see it's a good day for you

Chorus 1 x4
E|---------3-----------------------|
B|---1--1--1-----------------------|
G|---------2-----------------------|
D|---2-----3-----------------------|
A|---3--2--------------------------|
E|------3--------------------------|
'Cause it's time for taking chances, Whatever may be.
Find out what romance is, And in the end you'll see...

Chorus 2 x4
E|---------------------------------|
B|---1-----1-----0h1----1----------|
G|-2--2--------0------0------------|
D|--3----2--2---0------0-----------|
A|--------3------------------------|
E|---------------------------------|
And every time you hear a bell, Would you stop to think of me?
Wishing on a wishing well, Maybe then, in time, you'll see.

End On
E|-------|
B|---1~--|
G|-------|
D|---2~--|
A|---3~--|
E|-------|



Tabbed By: Gregg Seamon
Email: greggseamon@yahoo.com
Tap to rate this tab
# A B C D E F G H I J K L M N O P Q R S T U V W X Y Z