Song name
# A B C D E F G H I J K L M N O P Q R S T U V W X Y Z

Katy Perry - Mannequin tab

-------------------------------------------------------------------------------
			     Mannequin - Katy Perry
-------------------------------------------------------------------------------
Tabbed by: Arctic Monkey

Tuning: Standard

This is tabbed from her playing it acoustic from videos on the internet.
Although the album version is exactly the same. Listen to the song 
for the strumming patterns. Enjoy!


Capo on 3rd Fret

Intro
        x2
e|--10------0--:|
B|--10-----10--:|
G|--11-----11--:|
D|--12-----12--:|
A|--10------0--:|
E|-------------:|

Verse

How do I get closer to you...
             x2
e|--10-----0-----0--------:|--10--|
B|--10----10-----0----11--:|--10--|
G|--11----11-----5----12--:|--11--|
D|--12----12-----5----13--:|--12--|
A|--10-----0-----0-----0--:|--10--|
E|---------------5--------:|------|

Pre Chorus

I want to hit just to see if you cry...       
e|-----------------5---0-------------------------0--|
B|--13-------------0---0----------13-------------4--|
G|--14----9--7-----5---5----------14----9--7-----5--|
D|--12----9--7-----5---5----------12----9--7-----5--|
A|--------7--5-----0---0----------------7--5-----0--|
E|--------------------------------------------------|

Chorus

You not a man...
e|--10-----0-----0-----------10--|
B|--10----10-----0----11-----10--|
G|--11----11-----5----12-----11--|
D|--12----12-----5----13-----12--|
A|--10-----0-----0-----0-----10--|
E|---------------5---------------|

Verse

I wish I could just...
             x2
e|--10-----0-----0--------:|--10--|
B|--10----10-----0----11--:|--10--|
G|--11----11-----5----12--:|--11--|
D|--12----12-----5----13--:|--12--|
A|--10-----0-----0-----0--:|--10--|
E|---------------5--------:|------|

Pre Chorus

I'm such a fool...       
e|-----------------5---0-------------------------0--|
B|--13-------------0---0----------13-------------4--|
G|--14----9--7-----5---5----------14----9--7-----5--|
D|--12----9--7-----5---5----------12----9--7-----5--|
A|--------7--5-----0---0----------------7--5-----0--|
E|--------------------------------------------------|

Chorus

Your not a man...
              x2              
e|--10-----0-----0--------:|--10--|
B|--10----10-----0----11--:|--10--|
G|--11----11-----5----12--:|--11--|
D|--12----12-----5----13--:|--12--|
A|--10-----0-----0-----0--:|--10--|
E|---------------5--------:|------|

Bridge

If the past is a problem...
          x3
e|---0--------------:|--------0--|
B|--15----------13--:|--------4--|
G|--16----9-----14--:|--9--7--5--|
D|--16----9-----14--:|--9--7--5--|
A|--14----7-----12--:|--7--5--0--|
E|---0--------------:|-----------|

Chorus

Your not a man...
              x2              
e|--10-----0-----0--------:|
B|--10----10-----0----11--:|
G|--11----11-----5----12--:|
D|--12----12-----5----13--:|
A|--10-----0-----0-----0--:|
E|---------------5--------:|

Ending

e|--10-------0----0-----------10--|
B|--10------10----0----11-----10--|
G|--11------11----5----12-----11--|
D|--12------12----5----13-----12--|
A|--10-------0----0-----0-----10--|
E|----------------5---------------|

| /  slide up
| \  slide down
| h  hammer-on
| p  pull-off
| ~  vibrato
| +  harmonic
| x  Mute note
===============================================================================
Tap to rate this tab
# A B C D E F G H I J K L M N O P Q R S T U V W X Y Z