Song name
# A B C D E F G H I J K L M N O P Q R S T U V W X Y Z

Kaukonen Jorma - Hesitation Blues tab

HESITATION BLUES - HOT TUNA (Kaukonen/Casady) 



4/4      Am              E                   Am              E                   
E-----|-----------0-----------0-----------|-----------0-----------0-----------|
B-----|---1---------------0---------------|-------1-----------0---------------|
G--2--|---------------1-------------------|---------------1-------------------|
D-----|-----------2---------------2-------|-----------2---------------2-------|
A-----|---0-------------------------------|---0-------------------------------|
E-----|-------------------0---------------|-------------------0---------------|
   .      +   .   +   .   +   .   +   .       +   .   +   .   +   .   +   .    


     Am              E                   C               C7                      
E|-----------------------0---1---2---|---3---0---------------------------|
B|-----------1-------0---------------|-----------1---0-------3---1-------|
G|-------2-------1-------------------|-------------------3-----------0---|
D|-----------2---------------0-------|-----------2---------------2-------|
A|---0-------------------------------|---3---------------3---------------|
E|-------------------0---------------|-----------------------------------|
     +   .   +   .   +   .   +   .       +   .   +   .   +   .   +   .    


     F                                   Fm                                  
E|-----------------------------------|-----------------------------------|
B|-----------3-------1-------3-------|-----------3---1-------1---3-------|
G|---2-------------------------------|---1---------------------------0---|
D|-----------3---------------3-------|-----------3---------------3-------|
A|-----------------------------------|-----------------------------------|
E|---1---------------1---------------|---1---------------1---------------|
     +   .   +   .   +   .   +   .       +   .   +   .   +   .   +   .    


     C                                   A7
E|-------3-----------0---------------|------------------------3-----------|
B|---1-------------------4---3-------|---1--2-------------------------2---|
G|-------------------------------0---|---------2--4---2-----------2-------|
D|-----------2-----------------------|------------2---------------2-------|
A|---3---------------2-------1-------|---0----------------0---------------|
E|-----------------------------------|------------------------------------|
     +   .   +   .   +   .   +   .       +   .    +   .   +   .   +   .    


     D7
E|-----------------------------------|-----------------------0-----------|
B|---3-------1---2---3-------1---2---|---3-------1---3---------------3---|
G|---5---------------5---------------|---5-----------5-------------------|
D|-----------2---3-----------2---3---|-----------2---------------4-------|
A|---5---------------5---------------|---5---------------5---------------|
E|-----------------------------------|-----------------------------------|
     +   .   +   .   +   .   +   .       +   .   +   .   +   .   +   .    


     G
E|---7---7-----------5---7---5-------|-------3---2---1-------------------||
B|-----------------------------------|---------------------------3-------||
G|-----------------------------------|-------------------------------0---||
D|----------(0)-------------(0)------|-----------------------------------||
A|-----------------------------------|-----------0-------2---------------||
E|--(3)-------------(3)--------------|---3-----------------------3-------||
     +   .   +   .   +   .   +   .       +   .   +   .   +   .   +   .    





     Am              E                   Am              E           
E|-----------0-----------0-----------|-----------------------0-----------|
B|-------------------3---------------|-----------1---0-------------------|
G|---2-------------------------------|-------2-----------------------1---|
D|-----------2---------------2-------|-----------2---------------2-------|
A|---0-------------------------------|---0-------------------------------|
E|-------------------0---------------|-------------------0---------------|
     +   .   +   .   +   .   +   .       +   .   +   .   +   .   +   .    



     Am              E                   C               C7
E|-----------------------0---1---2---|---3---0---------------------------|
B|-----------1-------0---------------|-----------1---0-------1-----------|
G|-------2-------2-------------------|-------------------3---------------|
D|-----------2--------------(0)------|----------(2)-------------(2)------|
A|---0-------------------------------|--(3)------------------------------|
E|-------------------0---------------|------------------(3)--------------|
     +   .   +   .   +   .   +   .       +   .   +   .   +   .   +   .    


     F
E|-----------1-----------1-----------|---1-----------1-----------1-------|
B|---3---3/------3---3/------3---3/--|-------3--3/-------3--3/-------1---|
G|-----------------------------------|-------------------------------3---|
D|----------(3)-------------(3)------|----------(3)-------------(3)------|
A|-----------------------------------|-----------------------------------|
E|--(1)-------------(1)--------------|--(1)-------------(1)--------------|
     +   .   +   .   +   .   +   .       +   .   +   .   +   .   +   .    


     C7
E|-----------------------------------|-----------------------------------|
B|-----------1-------0---1-------0---|---1-------0---1-------------------|
G|-----------3-------2---3-------2---|---3-------2---3-------------------|
D|-----------2---------------2-------|-----------1---------------0-------|
A|---3---------------2---------------|---3---------------3-------0---1---|
E|-----------------------------------|-----------------------3-----------|
     +   .   +   .   +   .   +   .       +   .   +   .   +   .   +   .    


     G7                                                  
E|-----------1-----------1-------5---|-------0---------------------------|
B|-------------------3---------------|---4-------1-------3-----------1---|
G|-----------------------------------|---------------2-------0-----------|
D|-----------0---------------0-------|-----------------------------------|
A|---2-------------------------------|-----------------------------------|
E|-------------------3---------------|---------------------------3-------|
     +   .   +   .   +   .   +   .       +   .   +   .   +   .   +   .    



     C       C7      F       Ab          C               G7
E|-----------------------------------|---------------3-------1-----------||
B|-----------------------------------|-------1---------------------------||
G|-----------3-------2---1-------0---|-----------0-----------------------||
D|-----------2---------------1-------|-----------2-----------------------||
A|---3---------------3---------------|---3-------------------------------||
E|-----------------------------------|-------------------3-------4-------||
     +   .   +   .   +   .   +   .       +   .   +   .   +   .   +   .      etc. 
Tap to rate this tab
# A B C D E F G H I J K L M N O P Q R S T U V W X Y Z