Song name
# A B C D E F G H I J K L M N O P Q R S T U V W X Y Z

Kavinsky - Nightcall tab

-------------------------------------------------------------------------------
			                         Nightcall -Kavinsky 
-------------------------------------------------------------------------------
Tabbed by: Scones	
Email: sconez@gmail.com	

Tuning: Standard

     
VERSE
e|------8------8-----------7-----7---------5-----5---------5-----5-----------|
B|---10-----10-----10----8-----8-----8---6-----6-----6---6-----6-----6-------|
G|-9------9------9-----7-----7-----7---5-----5-----5---7-----7-----7---------|
D|---------------------------------------------------------------------------|
A|---------------------------------------------------------------------------|
E|---------------------------------------------------------------------------|

CHORUS
e|-----5-----5----------7-----7----------3-----3----------5----5-------------|
B|---6-----6-----6----8-----8-----8----5-----5-----5----6----6-----6---------|
G|-5-----5-----5----7-----7-----7----4-----4-----4----5----5-----5-----------|
D|---------------------------------------------------------------------------|
A|---------------------------------------------------------------------------|
E|---------------------------------------------------------------------------|

VERSE	  x6
CHORUS	 x4
VERSE 	 x4
CHORUS  Until fade 




************************************

| /   slide up
| \   slide down
| h   hammer-on
| p   pull-off
| ~   vibrato
| +   harmonic
| x   Mute note
| b   Bend
| pb  Pre-bend
| br  Bend release
| pbr Pre-bend release
| brb Bend release bend

************************************
Tap to rate this tab
# A B C D E F G H I J K L M N O P Q R S T U V W X Y Z