Song name
# A B C D E F G H I J K L M N O P Q R S T U V W X Y Z

Kay Kyser - Jingle Jangle Jingle chords

Highlighted       Show chord diagrams
Jingle, Jangle, Jingle
The Kay Kyser Orchestra (1942)

e|-5-5--6==--5-------------5-|
B|-6-6--7==--6-------8--6--6-|
G|-7-7--8==--7-------9--7--7-|
D|---------------------------|
A|---------------------------|
E|-8-8--9==--8---------------|
              Yippie yay

e|-----------------------------------|
B|-8-----------8--7--6----5----------|
G|-9-----------8--7--6----5----------|
D|-10----------7--6--5----4----------|
A|-----------------------------------|
E|-----------------------------------| F Dm G C7 
   There'll be no weddin' bells for today

(F Dm G C7)  F  Dm      G       C7      F
'Cause I got spurs that jingle, jangle, jingle
Dm      G     C7
Jingle, jangle
     F  Am     Bb   C7  F
As I go ridin' merrily along
Dm      G     C7
Jingle, jangle
         F      Dm  G         C7          F
And they sing, "Oh, ain't you glad you're single?"
Dm      G     C7
Jingle, jangle
         F    Am       Bb   C7       F
And that song ain't so very far from wrong
F/C     F
Jingle, jangle

           Bb7        [ch]Bb7/F[/ch]  Bb7
Oh, Lillie Belle (oh, Lillie Belle)
           F          F/C    F
Oh, Lillie Belle (oh, Lillie Belle)
         F        F/C       Bb A
Though I may have done some foolin'
G    F  G7          C7
This is why I never fell

       C7    F  Dm      G       C7      F
'Cause I got spurs that jingle, jangle, jingle
Dm      G     C7
Jingle, jangle
     F  Am     Bb   C7  F
As I go ridin' merrily along
Dm      G     C7
Jingle, jangle
         F      Dm  G         C7          F
And they sing, "Oh, ain't you glad you're single?"
Dm      G     C7
Jingle, jangle
         F    Am       Bb   C7       F
And that song ain't so very far from wrong
F/C     F
Jingle, jangle

   F/C F  Dm  G     C7   F   Dm  G  C7     F   Am  Bb   C7       F  F/C
e|---------5--3h5----------------------------8==-10--10----------------|
B|-----6----------6--------6---------6h8/9-10------9---9==----------10-|
G|-5--7-------------7--5-7----------7---------------------10-----10=---|
D|----------------------------------------------------------12p10------|
A|---------------------------------------------------------------------|
E|---------------------------------------------------------------------|

 F F/C   F    Dm        G         C7        F   Dm  G       C7        F          Dm
e|-------13-13---15b16=-15p13-----15p13-----13------------------------13--------------|
B|-15-13---------------------15p13-----15p13--13===---13h15---13h15-17--17p15p13===15-|
G|--------------------------------------------------14------15------------------------|
D|------------------------------------------------------------------------------------|
A|------------------------------------------------------------------------------------|
E|------------------------------------------------------------------------------------|

   G  C7
e|----------5-5--6==-8--|
B|----6-6=--6-6--7==-6--|
G|----7-7=--7-7--8==-7--|
D|----------------------|
A|----------------------|
E|----8-8=--8-8--9==-8--|

          F   Dm     G       C7      F
Oh, I got spurs that jingle, jangle, jingle
      (F)  Dm     G       C7      F
(I got spurs that jingle, jangle, jingle)
    (F) Am     Bb   C7  F
As I go ridin' merrily along
     (F) Dm     G    C7  F
(As I go ridin' merrily along)
        (F)  Dm    G          C7          F
And they sing, "Oh, ain't you glad you're single?"
         (F)     Dm  G         C7          F   
(And they sing, "Oh, ain't you glad you're single?")
        (F)   Am       Bb   C7       F
And that song ain't so very far from wrong
         (F)   Dm       G    C7       F
(And that song ain't so very far from wrong)

          Bb      [ch]Bb/A[/ch]   Bb/G    Bb/F
e|----------------------------------------|
B|----------------------------------------|
G|---3-5--7==--------------------2-3--5==-|
D|-3---------------------------3----------|
A|----------------------------------------|
E|----------------------------------------|
              Oh, Lillie Belle
F          F
Oh, Lillie Belle
         F        F/C       F/C    F
Though I may have done some foolin'
        G7          C
This is why I never fell
    Bb A G   F
Why I  never fell

            (F)  Dm     G       C7      F
'Cause I got spurs that jingle, jangle, jingle
      (F)  Dm     G       C7      F
(I got spurs that jingle, jangle, jingle)
    (F) Am     Bb   C7  F
As I go ridin' merrily along
     (F) Dm     G    C7  F
(As I go ridin' merrily along)
        (F)  Dm    G          C7          F
And they sing, "Oh, ain't you glad you're single?"
         (F)     Dm  G         C7          F   
(And they sing, "Oh, ain't you glad you're single?")
        (F)   Am       Bb   C7       F
And that song ain't so very far from wrong
         (F)   Dm       G    C7       F
(And that song ain't so very far from wrong)

http://en.wikipedia.org/wiki/Kay_Kyser
Tap to rate this tab
# A B C D E F G H I J K L M N O P Q R S T U V W X Y Z