Song name
# A B C D E F G H I J K L M N O P Q R S T U V W X Y Z

Kazami - You tab

-~-~-~-~-~-~-~-~-~-~-~-~-~-~-~--~-~-~-~-~-~-~-~-~-~-~-~-~-~-~-~-~-~-~-~-~-~-~-~
     You - Kazami
-~-~-~-~-~-~-~-~-~-~-~-~-~-~-~--~-~-~-~-~-~-~-~-~-~-~-~-~-~-~-~-~-~-~-~-~-~-~-~
Tabbed by: Young Hsu
Email: Fobdot123@yahoo.com
Youtube: young157

Vid playing: http://www.youtube.com/watch?v=-NyBPyQ3rIk

Tuning: Standard

Enjoy.

e -----------------------------------------------------|
B --------6-------------4------------1~2-------------4-|
G ------5-------------3--------------------------3h5---|
D ----6-------------5--------------3-----------5-------|
A --4-------------3--------------4-----------3---------|
E -----------------------------------------------------|

e ---------------------4------------------------------|
B --------6----------4---4------------4---------------|
G ------5----------5----------------1-----------3h5---|
D ----6----------3----------------3-------------------|
A --4---------------------------1------------3--------|
E -----------------------------------------4----------|

e -----------------------------------------------------|
B --------6-------------4------------1~2-------------4-|
G ------5-------------3--------------------------3h5---|
D ----6-------------5--------------3-----------5-------|
A --4-------------3--------------4-----------3---------|
E -----------------------------------------------------|

e ---------------------4-------------------------------|
B --------6----------4---4------------4-------4--------|
G ------5----------5----------------1-----------3------|
D ----6----------3----------------3---------------6----|
A --4---------------------------1----------------------|
E -----------------------------------------4-----------| (Repeat from top)

http://www.corichan.com/lyrics/kazami.html
Tap to rate this tab
 
# A B C D E F G H I J K L M N O P Q R S T U V W X Y Z