Song name
# A B C D E F G H I J K L M N O P Q R S T U V W X Y Z

Keane - Bedshaped tab

-------------------------------------------------------------------------------
                             Keane - Bedshaped
-------------------------------------------------------------------------------
Tabbed by: Liam Walker
Email: liam.walker@warwick.ac.uk

Tuning: Standard [EADGBE]

Synth:
e|-14-14-14-14-14-14-14-14-14-16-16-16-16-16-16-16-16|
B|o--------------------------------------------------|
G|---------------------------------------------------|
D|---------------------------------------------------|
A|o--------------------------------------------------|
E|---------------------------------------------------|


e|-9-9-9-9-9-9-9-9-9-9-9-9-9-9-9-9-9--9-9-9-9-9------|
B|----------------------------------o----------------|
G|---------------------------------------------------|
D|---------------------------------------------------|
A|----------------------------------o----------------|
E|---------------------------------------------------|

Piano:
e|------12-11--------9-7--------9-7--------------|
B|9-9-9-------9--9-9-----------------------------|
G|-----------------------9--9-9-----8--8-8-9-9--9|
D|-----------------------------------------------|
A|-----------------------------------------------|
E|-----------------------------------------------|

E|----12-11--------9-7-9--------9-7--------------|
B|----------9--9-9-------------------------------|
G|9-9--------------------9--9-9-----8--8-8-9-9--9|
D|-----------------------------------------------|
A|-----------------------------------------------|
E|-----------------------------------------------|
Tap to rate this tab
 
# A B C D E F G H I J K L M N O P Q R S T U V W X Y Z