Guitaretab - guitar tabs
Song name
# A B C D E F G H I J K L M N O P Q R S T U V W X Y Z

Keaton Simons - Misfits tab

-------------------------------------------------------------------------------
			     Keaton Simons - Misfits
-------------------------------------------------------------------------------
Tabbed by: guitarman210
Email: ballerb0y2235@aim.com

Tuning:ebgdaE
**ATTENTION** You can play these chords in f fingering (yes, that means barre the first
strings). The chords are A,Bm,and Dbm (the minors are played like Gm, but just further
the fretboard on the 7th and 9th frets)! To also get those single notes he plays during 
verses, just arpeggio the chords. Play the strings one at a time. I might add that you
some scratches in the song, so you'll have to figure out where he plays scratches and on 
chords.

e|--------5---------------------------------------------------------------------|
B|---------5--------------------------------------------------------------------|
G|--------------6---------------------------------------------------------------|
D|------------------7-----------------------------------------------------------|
A|------------------------------------------------------------------------------|
E|------------------------------------------------------------------------------|

e|-------------7----------------------------------------------------------------|
B|-------------7----------------------------------------------------------------|
G|--------------7---------------------------------------------------------------|
D|---------------------9--------------------------------------------------------|
A|------------------------------------------------------------------------------|
E|------------------------------------------------------------------------------|

e|-----------9----------------------------7---------------------------------------|
B|-----------9-----------------------------7--------------------------------------|
G|------------9------------------------------7------------------------------------|
D|--------------11----------------------------9-----------------------------------|
A|--------------------------------------------------------------------------------|
E|--------------------------------------------------------------------------------|
This is the arpeggio part:
[ Tab from: http://www.guitaretab.com/k/keaton-simons/184649.html ]
e|----------------5-------------------------------------------------------------|
B|--------------------5---------------------------------------------------------|
G|------------------------6-----------------------------------------------------|
D|----------------------------7-------------------------------------------------|
A|------------------------------------------------------------------------------|
E|------------------------------------------------------------------------------|

e|-----------------7------------------------------------------------------------|
B|-------------------7----------------------------------------------------------|
G|-----------------------7------------------------------------------------------|
D|------------------------------9-----------------------------------------------|
A|------------------------------------------------------------------------------|
E|------------------------------------------------------------------------------|

e|------------------9--------------------------------7----------------------------|
B|--------------------9---------------------------------7-------------------------|
G|-------------------------9-------------------------------7----------------------|
D|---------------------------------11------------------------9--------------------|
A|--------------------------------------------------------------------------------|
E|--------------------------------------------------------------------------------|
When Keaton starts singing they were all alone, they didnít answer to no one, you can 
this:

e|-------------5----------------------------------------------------------------|
B|--------------5---------------------------------------------------------------|
G|-------------------6----------------------------------------------------------|
D|----------------------7-------------------------------------------------------|
A|------------------------------------------------------------------------------|
E|------------------------------------------------------------------------------|
The middle chord (4,4,4,6), I'm about 60% sure thats the chord he plays, but the last
before you go back up the fretboard is correct.
e|---------4---------------------------2------2------------4--------5---------------|
B|----------4---------------------------2------2------------4--------5--------------|
G|-----------4---------------------------2------2------------4--------6-------------|
D|-----------------6-----------------------4-----4------------6-------7-------------|
A|----------------------------------------------------------------------------------|
E|----------------------------------------------------------------------------------|


| /  slide up
| \  slide down
| h  hammer-on
| p  pull-off
| ~  vibrato
| +  harmonic
| x  Mute note
===============================================================================
Related for Misfits tab