Song name
# A B C D E F G H I J K L M N O P Q R S T U V W X Y Z

Keith Carradine - Im Easy tab

This is a tab as Carradine plays it on the movie "Nashville"...


INTRO:
       Dm
e|-----0----------0--------0----------0-----------|
B|-----------6--------6----------6----------------|
G|---------5--------5---------5---------5---------|
D|-----0----------------0-------------------------|
A|-------------0-------------------0--------------|
E|------------------------------------------------|

   Am
e|-----0----------0---------0-----------0----------0---------0----5-------|
B|----------0----------7---------7-----------7------------8---------------|
G|-------5----------5---------5-----------5-----------5--------5-----5----|
D|------------7---------------------7-----------------------------------7-|
A|-0---------------------0---------------------0------------------0-------|
E|------------------------------------------------------------------------|

VERSE:
  Dm                 G                 Cmaj7
e|---0---------0-------3--------3----------0---------0--------0-------0----|
B|--------6----------------0--------0----------0---------0--------0------0-|
G|-----5---------0-------0--------0----------0---------0--------0-------0--|2x
D|0--------------------------0--------------------2-----------------2------|
A|----------0---------------------------3-------------------3--------------|
E|-------------------3-----------------------------------------------------|

    Dm                G                Cmaj7
e|-----0---------0-------3-------3--------0--------0-----------|
B|----------6----------------0-------0--------0---------0------|
G|-------5---------0-------0-------0--------0---------0--------|
D|--0--------------------------0----------------2--------------|
A|------------0-------------------------3----------------------|
E|---------------------3---------------------------------------|

   Fmaj7              Dm
e|---0--------0----------0--------0----------0---------0---------|
B|-------1--------1----------3--------3----------3---------3-----|
G|-----2--------2----------2--------2---------2----------2-------|
D|---------3-------------------3--------------------3------------|
A|-3------------------0------------------0-----------------------|
E|---------------------------------------------------------------|

    G
e|-----3--------3------------3---------3-----------|
B|---------0---------0------------0---------0------|
G|-------0--------0-------------0--------0---------|
D|-----------0----------------------0--------------|
A|-------------------------------------------------|
E|--3--------------------3-------------------------|

VERSE...

Before chorus:

   G
e|-----------3-------0----------0------|
B|------0---------0--------3-----------|
G|----0---------0--------0-------------|
D|--------0------------------0---------|
A|-------------------------------------|
E|--3----------------3-----------------|


CHORUS:
   C
e|---0--------0--------0--------0-----------|
B|-------1--------1--------1--------1-------|
G|-----0--------0--------0--------0---------|
D|---------2------------------2-------------|
A|-3----------------3-----------------------|
E|------------------------------------------|

   Dm
e|-----1---------1----------1----------1---------|
B|----------3--------3-----------3---------3-----|
G|--------2--------2-----------2---------2-------|
D|------------0---------------------0------------|
A|--0--------------------0-----------------------|
E|-----------------------------------------------|

    Em7
e|-----0---------0------------0-----------0---------|
B|---------3----------3------------3-----------3----|
G|-------0----------0------------0-----------0------|
D|--------------------------------------------------|
A|------------2-----------------------2-------------|
E|--0---------------------0-------------------------|

   Fmaj7
e|-----0---------0----------0---------0-------------|
B|---------1----------1----------1---------1--------|
G|-------2---------2-----------2---------2----------|
D|------------3---------------------3---------------|
A|--3--------------------3--------------------------|
E|--------------------------------------------------|

  C
e|---0--------0--------0--------0-----------|
B|-------1--------1--------1--------1-------|
G|-----0--------0--------0--------0---------|
D|---------2------------------2-------------|
A|-3----------------3-----------------------|
E|------------------------------------------|

   Dm
e|-----1---------1----------1----------1---------|
B|----------3--------3-----------3---------3-----|
G|--------2--------2-----------2---------2-------|
D|------------0---------------------0------------|
A|--0--------------------0-----------------------|
E|-----------------------------------------------|

    Em7
e|-----0---------0------------0-----------0---------|
B|---------3----------3------------3-----------3----|
G|-------0----------0------------0-----------0------|
D|--------------------------------------------------|
A|------------2-----------------------2-------------|
E|--0---------------------0-------------------------|

   Fmaj7
e|-----0---------0----------0---------0-------------|
B|---------1----------1----------1---------1--------|
G|-------2---------2-----------2---------2----------|
D|------------3---------------------3---------------|
A|--3--------------------3--------------------------|
E|--------------------------------------------------|

   Cmaj7
e|---0--------0--------0--------0-------0--------0---------------------|
B|-------0--------0--------0--------0---0---0----0---------------------|
G|-----0--------0--------0--------0-------0----------0-----------0-----|
D|---------2------------------2---------------2---------------2--------|
A|-3----------------3-------------------3------------------3-----------|
E|---------------------------------------------------------------------|

At the end of the song, he just strums a Cmaj7 chord (x32000)
Tap to rate this tab
# A B C D E F G H I J K L M N O P Q R S T U V W X Y Z