Song name
# A B C D E F G H I J K L M N O P Q R S T U V W X Y Z

Keith Whitley - Dont Close Your Eyes tab

Keith Whitley 
Don't Close Your Eye's
 

Intro
                           
              (C)        (D^DvD^Gv)          (Gsus)                  (G)
e|-------------|------O--|--------|-----2-------|------3--------------3-| 
B|-------------|--1-----1|--------|---3---------|3----3--3-------1----3-|
G|---O-2-4-----|O---O----|----O---|-2------O-Oh2|--O-----------0---0--0-|
D|-O--------Oh2|---------|Oh2---4-|------4------|----------0h2--------0-|
A|-------------|---------|--------|-------------|---------------------2-|
E|-------------|---------|--------|-------------|---------------------3-|


Verse 1

I know you loved him A long time ago

Even now in my arms You still want him I know

But darling this time Let your memories die

When you hold me tonight Don't close your eyes



  (C)         (D)           (G)     (G/F#)   (Em)
e|------------0|------------2|--------|-------|-------------------------|
B|----------1--|1---------3--|3-------|-------|-------------------------|
G|--------0----|--0-----2----|--2-----|-------|-------------------------|
D|-------2-----|---2-0-------|---0----|----0--|-------------------------|
A|-----3-------|-------------|-----0--|--2---2|-------------------------|
E|-------------|-------------|-------0|3------|-------------------------|
 


                    (C)       (D)           (G)    (Gsus)    (G)
e|-------------------|--------0|------------2|--------|-------|---------|
B|-------------------|------1--|1---------3--|3-------|-------|---------|
G|------0------------|----0----|--0-----2----|--2-----|-------|----0----|
D|----2---2-----0----|---2-----|---2-0-------|---0----|----0--|--2---2--|
A|--3---------2---2--|-3-------|-------------|-----0--|--2---2|3--------|
E|----------3--------|---------|-------------|-------0|3------|---------|




  (C)         (D)           (G)     (G/F#)   (Em)
e|------------0|------------2|--------|-------|-------------------------|
B|----------1--|1---------3--|3-------|-------|-------------------------|
G|--------0----|--0-----2----|--2-----|-------|-------------------------|
D|-------2-----|---2-0-------|---0----|----0--|-------------------------|
A|-----3-------|-------------|-----0--|--2---2|-------------------------|
E|-------------|-------------|-------0|3------|-------------------------|




                    (C)       (D)           (G)    (Gsus)    (G)
e|-------------------|--------0|------------2|--------|-------|---------|
B|-------------------|------1--|1---------3--|3-------|-------|---------|
G|------0------------|----0----|--0-----2----|--2-----|-------|----0----|
D|----2---2-----0----|---2-----|---2-0-------|---0----|----0--|--2---2--|
A|--3---------2---2--|-3-------|-------------|-----0--|--2---2|3--------|
E|----------3--------|---------|-------------|-------0|3------|---------|




Chorus
                (C)            (D)
Don't close your eyes Let it be me
                  (G)    (G/F#)   (Em)
Don't pretend it's him In some fantasy
            (C)                (D)
Darling just once Let yesterday go
                (G)       (G/F#)      (Em)
You'll find more love Than you've ever known
            (C)                    (D)
Just hold me tight When you love me tonight
                    (G)  (Gsus) (G)
And don't close your eyes




Verse 2

Maybe I've been a fool Holding on all this time

Lyin' here in your arms Knowing he's in your mind

But I keep hoping some day That you'll see the light

Let it be me tonight Don't close your eyes



  (C)         (D)           (G)     (G/F#)   (Em)
e|------------0|------------2|--------|-------|-------------------------|
B|----------1--|1---------3--|3-------|-------|-------------------------|
G|--------0----|--0-----2----|--2-----|-------|-------------------------|
D|-------2-----|---2-0-------|---0----|----0--|-------------------------|
A|-----3-------|-------------|-----0--|--2---2|-------------------------|
E|-------------|-------------|-------0|3------|-------------------------|
 


                    (C)       (D)           (G)    (Gsus)    (G)
e|-------------------|--------0|------------2|--------|-------|---------|
B|-------------------|------1--|1---------3--|3-------|-------|---------|
G|------0------------|----0----|--0-----2----|--2-----|-------|----0----|
D|----2---2-----0----|---2-----|---2-0-------|---0----|----0--|--2---2--|
A|--3---------2---2--|-3-------|-------------|-----0--|--2---2|3--------|
E|----------3--------|---------|-------------|-------0|3------|---------|




  (C)         (D)           (G)     (G/F#)   (Em)
e|------------0|------------2|--------|-------|-------------------------|
B|----------1--|1---------3--|3-------|-------|-------------------------|
G|--------0----|--0-----2----|--2-----|-------|-------------------------|
D|-------2-----|---2-0-------|---0----|----0--|-------------------------|
A|-----3-------|-------------|-----0--|--2---2|-------------------------|
E|-------------|-------------|-------0|3------|-------------------------|




                    (C)       (D)           (G)    (Gsus)    (G)
e|-------------------|--------0|------------2|--------|-------|---------|
B|-------------------|------1--|1---------3--|3-------|-------|---------|
G|------0------------|----0----|--0-----2----|--2-----|-------|----0----|
D|----2---2-----0----|---2-----|---2-0-------|---0----|----0--|--2---2--|
A|--3---------2---2--|-3-------|-------------|-----0--|--2---2|3--------|
E|----------3--------|---------|-------------|-------0|3------|---------|




Chorus
                (C)            (D)
Don't close your eyes Let it be me
                  (G)    (G/F#)   (Em)
Don't pretend it's him In some fantasy
            (C)                (D)
Darling just once Let yesterday go                 X 2
                (G)       (G/F#)      (Em)
You'll find more love Than you've ever known
            (C)                    (D)
Just hold me tight When you love me tonight
                    (G)  (Gsus) (G)
And don't close your eyes




Outro

Just hold me tight
When you love me tonight
And don't close your eyes



e|----------------------------------------------------------------------|
B|----------------------------------------------------------------------|
G|----------------------------------------------------------------------|
D|----------------------------------------------------------------------|
A|--3--2--2--0----------------------------------------------------------|
E|--------------3-------------------------------------------------------|

Tap to rate this tab
# A B C D E F G H I J K L M N O P Q R S T U V W X Y Z