Song name
# A B C D E F G H I J K L M N O P Q R S T U V W X Y Z

Keldian - Starchildren tab

Artist: Keldian
Song: Starchildren
Album: Journey of Souls
Tabbed by drawnacrol
Standard Tuning E A D G B E

Listen to the song here for timing:
http://www.youtube.com/watch?v=N7uj0BNo9ZA

Keldian Website:
http://www.myspace.com/keldian

Verse Riff:
|----------------------------------------------------------------------|
|----------------------------------------------------------------------|
|----------------------------------------------------------------------|
|----11--12--11--9--11--7--9---------11--12--11--9--12--11-------------|
|-9--9---9---9---9--9---9--9------9--9---9---9---9--9---9--------------|
|----------------------------------------------------------------------|

|----------------------------------------------------------------------|
|----------------------------------------------------------------------|
|----------------------------------------------------------------------|
|----11--12--11--9--11--7--9---------7--9--7--6--7--4------------------|
|-9--9---9---9---9--9---9--9------7--7--7--7--7--7--5------------------|
|----------------------------------------------------------------------|


Chorus:
|----------------------------------------------------------------------|
|----------------------------------------------------------------------|
|------11--13--14--13--11--11~-----------11--13--14--13--11--11~-------|
|--11--------------------------------11--------------------------------|
|----------------------------------------------------------------------|
|----------------------------------------------------------------------|

|----------------------------------------------------------------------|
|--------------------------12------------------------------------------|
|------11--13--14--13--14-----------11------13--14--13-------11--------|
|--11---------------------------14------14--------------14-------------|
|----------------------------------------------------------------------|
|----------------------------------------------------------------------|

|----------------------------------------------------------------------|
|----------------------------------------------------------------------|
|------11--13--14--13--11--11~-----------11--13--14--13--11--11~-------|
|--11--------------------------------11--------------------------------|
|----------------------------------------------------------------------|
|----------------------------------------------------------------------|

|----------------------------------------------------------------------|
|--------------------------12------------------------------------------|
|------11--13--14--13--14-----------11------13--14--13-------14--------|
|--11---------------------------14------14--------------14-------------|
|----------------------------------------------------------------------|
|----------------------------------------------------------------------|


Breakdown:
|-----------------------------------------------------------------|
|-----------------------------------------------------------------|
|-----------------------------------------------------------------|
|--4--4--4--2--4------------------4--4--4--2--4-------------------|
|--4--4--4--2--4------------------4--4--4--2--4-------------------|
|--2--2--2--0--2----2--2h4--4h5---2--2--2--0--2---4--4h5--5h7-----|

|-----------------------------------------------------------------|
|-----------------------------------------------------------------|
|-----------------------------------------------------------------|
|--7--7--7--6--7------------------9--9--9--7--9-------------------|
|--5--5--5--4--5------------------7--7--7--5--7-------------------|
|--5--5--5--4--5----2--2h4--4h5---7--7--7--5--7---4--4h5--5h7-----|

Interlude:
|-------------------|
|-------------------|
|-------------------|
|--4----------------|
|--4----------------|
|--2----------------|


Outro Chorus:
|----------------------------------------------------------------------|
|----------------------------------------------------------------------|
|----------------------------------------------------------------------|
|---7------9------7------11----7------9------7-------4-----------------|
|---7------9------7------11----7------9------7-------4-----------------|
|---5------7------5------9-----5------7------5-------2-----------------|


Verse Riff x 3
Chorus x 1
Verse Riff x 3
Chorus x 1
Breakdown x 2
Interlude x 1
Verse Riff x 1
Chorus x 1
Outro Chorus x 2
Verse Riff x 1
Tap to rate this tab
 
# A B C D E F G H I J K L M N O P Q R S T U V W X Y Z