Song name
# A B C D E F G H I J K L M N O P Q R S T U V W X Y Z

Keller Williams - Airport tab

Help us improve GuitareTab! Take a short survey!
Tuning:



Main Riff:                                                            Repeat
e|---------------------------------------------------------------------------|
B|---------------------------------------------------------------------------|
G|---------------------------------------------------------------------------|
D|---------------------------------------------------------------------------|
A|--------2--0-----------------2--0-------------2--0---0h2p0-----------------|
D|-0h2p0---------0h2p0--0h202-------------0h20----------------0h2p0--0h2p02---

e|---------------------------------------------------------------------------|
B|---------------------------------------------------------------------------|
G|---------------------------------------------------------------------------|
D|------------------------------Repeat---------------------------------------|
A|-------------------2--0----------------------------------------------------|
D|---0h2p0--0h2p02-----------------------------------------------------------


Put the pedal to the metal and my head flew back...    
e|-------------------------------------2------------------------------------|
B|-------------------------------------3------------------------------------|
G|-444---------------------------------2-----4------------------------------|
D|-444---------------------------------0-----4------------------------------|
A|-222---------------------------------------2------------------------------|
D|--------------------------------------------------------------------------|



Related for Airport tab