Guitaretab - guitar tabs
Song name
# A B C D E F G H I J K L M N O P Q R S T U V W X Y Z

Kelly Clarkson - I Want You tab

-- Kelly Clarkson  I want you --

standard tuning EADGBE

tabbed by x-tasha-x

it's pretty much the same all the way through accept from the bridge =D

Intro: 
guitar 1
E||------------------|  |--20-20-----------|
B||--17-17-18-20-18--|  |--------20-18-17--|
G||------------------|x5|------------------|
D||------------------|  |------------------|
A||------------------|  |------------------|
E||------------------|  |------------------|

[ Tab from: http://www.guitaretab.com/k/kelly-clarkson/179930.html ]
from 0:11 
guitar 2
     C       Am
E||--0--------0--|
B||--1--------1--|
G||--0--------2--|x4
D||--2--------2--| 
A||--3--------0--|
E||--x--------x--|

guitar 1(repeat 3 times)
E||------------------|  |--20-20-----------|
B||--17-17-18-20-18--|  |--------20-18-17--|
G||------------------|x3|------------------|
D||------------------|  |------------------|
A||------------------|  |------------------|
E||------------------|  |------------------|


Bridge:  1:41
(guitar 1 and 2)
     F        G
E||--1--------2--|
B||--1--------2--|
G||--2--------0--|x2
D||--3--------0--|
A||--3--------2--|
E||--1--------3--|

Related for I Want You tab