Song name
# A B C D E F G H I J K L M N O P Q R S T U V W X Y Z

Kelly Clarkson - Walk Away tab

Walk Away
Kelly Clarkson

Tabbed By Kyle B
tabberkyleb@yahoo.com

Verses

 Guitar 1 - pluck very hard.  Other tabs are wrong, there's only 1 string being
played but with alot of chorus or something
---------------------------------------------------------------|
---------------------------------------------------------------|
---------------------------------------------------------------|
---------------------------------------------------------------|
-----------1--1-----3---3------3---3---------------------------|(Ect..  You figure out the
---3--3------------------------------------exact phrasing.ez)--|


 Guitar 2
Hold the notes - Try lightly bending the strings very slightly for a neat vibrato effect

-----7---7----6----6-----5---5----6---6----------------------------------|
---8---8----8---8------8---8----8---8------------------------------------|
-------------------------------------------------------------------------|
-------------------------------------------------------------------------|
-------------------------------------------------------------------------|
-------------------------------------------------------------------------|

 Guitar 3  (Yes 3 guitars in a Kelly Clarkson song!  :)

----6--6------------------------------------------8--8---------------------|
----8--8--etc...  But the wah is messing----------8--8---------------------|
----7--7-----------with my ear, and I ------------7--7---------------------|
------------------don't have one on-hand, ---------------------------------|
--------------------so it might actually be...-----------------------------|
---------------------------------------------------------------------------|



The chords under the verses are in G minor:

Gm  Bb   Cm  repeat..


This is kinda neat because the chorus changes to G major

G  F   C   repeat

The bridge and chorus are basically just noise.  LOL  Have fun with 'em



But you might try these voicings in the bridge, it flows nicely

    G    Bb   Cm   Eb
-------------------------------------------------------------------------|
----3----3-----4----4----------------------------------------------------|
----4----3-----5----3----------------------------------------------------|
----5----3-----5----5----------------------------------------------------|
-------------------------------------------------------------------------|
-------------------------------------------------------------------------|
Tap to rate this tab
# A B C D E F G H I J K L M N O P Q R S T U V W X Y Z