Song name
# A B C D E F G H I J K L M N O P Q R S T U V W X Y Z

Ken Reynolds - You Are My God tab

-------------------------------------------------------------------------------
You are my God  Ken Reynolds
-------------------------------------------------------------------------------
Tabbed by: Matthew Nathaniel George
E-mail: 211514566@stu.ukzn.ac.za

Tuning: Standard
Solo

e|---------9--10---12---------------------------------------------------------------|
B|---/10----------------12b14 --12--------13---12---10------------------------------|
G|----------------------------------------------------------------------------------|
D|----------------------------------------------------------------------------------|
A|----------------------------------------------------------------------------------|
E|----------------------------------------------------------------------------------|

e|-----------------------------------------------------------------------------------|
B|---10---12---13---------------12/14 --------12p10----------------------------------|
G|--------------------12   ----9-----------------------------------------------------|
D|-----------------------------------------------------------------------------------|
A|-----------------------------------------------------------------------------------|
E|-----------------------------------------------------------------------------------|





e|------9---10---12-----10------9------------17b1917-------------------------------|
B|--10---------------------------------10------------------------------------------|
G|---------------------------------------------------------------------------------|
D|---------------------------------------------------------------------------------|
A|---------------------------------------------------------------------------------|
E|---------------------------------------------------------------------------------|

e|---15p12----------------------------------------------------------------------------|
B|------------15b1712-----------------------------------------------------------------|
G|------------------------14p12-------------------------------------------------------|
D|---------------------------------14p12----------------------------------------------|
A|------------------------------------------------------------------------------------|
E|------------------------------------------------------------------------------------|

e|------------------------------12h15/17  --------19b21p17--|
B|---------------------12h15--------------------------------|
G|------------12h14-----------------------------------------|
D|---12h14--------------------------------------------------|
A|----------------------------------------------------------|
E|----------------------------------------------------------|



************************************
legend
| /   slide up
| \   slide down
| h   hammer-on
| p   pull-off
| b   Bend
********************************
Tap to rate this tab
# A B C D E F G H I J K L M N O P Q R S T U V W X Y Z