Song name
# A B C D E F G H I J K L M N O P Q R S T U V W X Y Z

Kenna - Out Of Control tab

----------------------------------------------------------------------------
			     Out of Control - Kenna 
----------------------------------------------------------------------------
Tabbed by: KGM
Email: DJH52010@aol.com 
 
my first tab so it isnt the best 
 
easy song, got most of the parts

Tuning: standard

 
Intro Lead 

e|--------------------------17---------------------------------------------|
B|--18-17-18-17-18-17-18-17------------------------------------------------|
G|-------------------------------------------------------------------------|
D|-------------------------------------------------------------------------|
A|-------------------------------------------------------------------------|
E|-------------------------------------------------------------------------|
 
Repeat 3 times on 4 time         Repeat Intro 1 time then
e|--------------20-17---------|--20-17----17-------------------------------|
B|--18-17-18-17-------18------|--------18----------------------------------|
G|----------------------------|--------------------------------------------|
D|----------------------------|--------------------------------------------|
A|----------------------------|--------------------------------------------|
E|----------------------------|--------------------------------------------|
  
Backround (as chords)last chord im not sure about

e|-------------------------------------------------------------------------|
B|-------------------------------------------------------------------------|
G|-----------7-x6--6--x2---------------------------------------------------|
D|-3-x4-5-x4-7-----6-------------------------------------------------------|
A|-3----5----5-----4-------------------------------------------------------|
E|-1----3------------------------------------------------------------------|
  
Main riff 1 (repeat each part as necessary) 

e|-------------------------------------------------------------------------|
B|-------------------------------------------------------------------------|
G|-------------------------------------------------------------------------|
D|-------------------------------------------------------------------------|
A|-------------------------------------------------------------------------|
E|-5-5-5-5-5--3-3-3-3-3--6-6-6-6-6-----------------------------------------|
 
The Intro is the Chorus 
 
The second part is with main riff 1 here the syth
e|-------------------------------------------------------------------------|
B|-------------------------------------------------------------------------|
G|-------------------------------------------------------------------------|
D|-------------------------------------------------------------------------|
A|-------------------------------------------------------------------------|
E|--5-6-10-----------------------------------------------------------------|
 
Guiat part 1 (basic chords but not the right ones)

e|--5--3-6-----------------------------------------------------------------|
B|--5--3-6-----------------------------------------------------------------|
G|--5--3-6-----------------------------------------------------------------|
D|--7--5-8-----------------------------------------------------------------|
A|--7--5-8-----------------------------------------------------------------|
E|--5--3-6-----------------------------------------------------------------|
 
Guiar riff 2 (play with main riff 1)

e|-------------------------------------------------------------------------|
B|-------------------------------------------------------------------------|
G|-------------------------------------------------------------------------|
D|----------5-5------------------------------------------------------------|
A|----5-7-8-------8--------------------------------------------------------|
E|--8-----------6----------------------------------------------------------|
 
Chorus 

Thats about it, email me with any suggestions

| /  slide up
| \  slide down
| h  hammer-on
| p  pull-off
| ~  vibrato
| +  harmonic
| x  Mute note
===============================================================================
Tap to rate this tab
# A B C D E F G H I J K L M N O P Q R S T U V W X Y Z