Song name
# A B C D E F G H I J K L M N O P Q R S T U V W X Y Z

Kenny Chesney - Im Alive tab

Whats up. there was one tab up and it was okay. but this one is 99% perfect.



The first section is just the whole song laid out. 
The second is the whole song with lyrics.

######################################################################

                             SECTION 1

######################################################################

Tuning: Standard with capo on 8th fret.(Tab relative to capo)
Key: D#


Intro/Verse:
E|---------------|---------------|---------------|---------------|
B|-3---------3---|-4---------4---|-5---------5---|-4---------4---|
G|-----0---0-----|-----0---0-----|-----0---0-----|-----0---0-----|
D|---------------|---------------|---------------|---------------|
A|---------------|-2-----2-----2-|-3-----3-----3-|-3-----3-----3-|
E|-3-----3-----3-|---------------|---------------|---------------|

E|---------------|---------------|---------------|---------------|
B|-3---------3---|-4---------4---|-5---------5---|-4-------------|
G|-----0---0---0-|-----0---0---0-|-----0---0-----|---------------|
D|---------------|---------------|---------------|---------------|
A|---------------|-2-----2-----2-|-3-----3-----3-|-3-------------|
E|-3-----3-----3-|---------------|---------------|---------------|



Chorus:
E|---------------|---------------|---------------|---------------|
B|-5---------5---|-8---------8---|-7---------7---|-5---------5---|
G|-----0---0-----|-----0---0-----|-----0---0-----|-----0---0-----|
D|-2-----2-----2-|-5-----5-----5-|-4-----4-----4-|-2-----2-----2-|
A|---------------|---------------|---------------|---------------|
E|---------------|---------------|---------------|---------------|


Bridge:
E|---------------|---------------|---------------|---------------|
B|-5---------5---|-8---------8---|-7---------7---|-5---------5---|
G|-----0---0-----|-----0---0-----|-----0---0-----|-----0---0-----| x2
D|-2-----2-----2-|-5-----5-----5-|-4-----4-----4-|-2-----2-----2-|
A|---------------|---------------|---------------|---------------|
E|---------------|---------------|---------------|---------------|

E|---------------|---------------|---------------|---------------|
B|-7---------7---|-7---------7---|-10--------10--|-8---------8---|
G|-----0---0-----|-----0---0-----|-----0---0-----|-----0---0-----|
D|-4-----4-----4-|-4-----4-----4-|-7-----7-----7-|-5-----5-----5-|
A|---------------|---------------|---------------|---------------|
E|---------------|---------------|---------------|---------------|

E|---------------|---------------|---------------|---------------|
B|-10--------10--|-7---------7---|-5---------5---|-5---------5---|
G|-----0---0-----|-----0---0-----|-----0---0-----|-----0---0-----|
D|-7-----7-----7-|-4-----4-----4-|-2-----2-----2-|-2-----2-----2-|
A|---------------|---------------|---------------|---------------|
E|---------------|---------------|---------------|---------------|

E|---------------|
B|-3-------------|
G|---------------|
D|-0-------------|
A|---------------|
E|---------------|


#########################################################################

                              SECTION 2

#########################################################################
This version is fully laid out to show you where each part is sung.

Intro/Verse:
E|---------------|---------------|---------------|---------------|
B|-3---------3---|-4---------4---|-5---------5---|-4---------4---|
G|-----0---0-----|-----0---0-----|-----0---0-----|-----0---0-----|
D|---------------|---------------|---------------|---------------|
A|---------------|-2-----2-----2-|-3-----3-----3-|-3-----3-----3-|
E|-3-----3-----3-|---------------|---------------|---------------|
       "It's so damn easy to say that life's so hard"
E|---------------|---------------|---------------|---------------|
B|-3---------3---|-4---------4---|-5---------5---|-4-------------|
G|-----0---0---0-|-----0---0---0-|-----0---0-----|---------------|
D|---------------|---------------|---------------|---------------|
A|---------------|-2-----2-----2-|-3-----3-----3-|-3-------------|
E|-3-----3-----3-|---------------|---------------|---------------|
      "Everybody's got their share of battle scars"
E|---------------|---------------|---------------|---------------|
B|-3---------3---|-4---------4---|-5---------5---|-4---------4---|
G|-----0---0-----|-----0---0-----|-----0---0-----|-----0---0-----|
D|---------------|---------------|---------------|---------------|
A|---------------|-2-----2-----2-|-3-----3-----3-|-3-----3-----3-|
E|-3-----3-----3-|---------------|---------------|---------------|
       "As for me, I'd like to thank my lucky stars"
E|---------------|---------------|---------------|---------------|
B|-3---------3---|-4---------4---|-5---------5---|-4-------------|
G|-----0---0---0-|-----0---0---0-|-----0---0-----|---------------|
D|---------------|---------------|---------------|---------------|
A|---------------|-2-----2-----2-|-3-----3-----3-|-3-------------|
E|-3-----3-----3-|---------------|---------------|---------------|
       "That I'm alive_______________ and well"
E|---------------|---------------|---------------|---------------|
B|-3---------3---|-4---------4---|-5---------5---|-4---------4---|
G|-----0---0-----|-----0---0-----|-----0---0-----|-----0---0-----|
D|---------------|---------------|---------------|---------------|
A|---------------|-2-----2-----2-|-3-----3-----3-|-3-----3-----3-|
E|-3-----3-----3-|---------------|---------------|---------------|
            "It'd be easy to add up all the pain"
E|---------------|---------------|---------------|---------------|
B|-3---------3---|-4---------4---|-5---------5---|-4-------------|
G|-----0---0---0-|-----0---0---0-|-----0---0-----|---------------|
D|---------------|---------------|---------------|---------------|
A|---------------|-2-----2-----2-|-3-----3-----3-|-3-------------|
E|-3-----3-----3-|---------------|---------------|---------------|
   "And all the dreams you've sat and watched go up in flames"
E|---------------|---------------|---------------|---------------|
B|-3---------3---|-4---------4---|-5---------5---|-4---------4---|
G|-----0---0-----|-----0---0-----|-----0---0-----|-----0---0-----|
D|---------------|---------------|---------------|---------------|
A|---------------|-2-----2-----2-|-3-----3-----3-|-3-----3-----3-|
E|-3-----3-----3-|---------------|---------------|---------------|
      "Dwell on the wreckage as it smolders in the rain"
E|---------------|---------------|---------------|---------------|
B|-3---------3---|-4---------4---|-5---------5---|-4-------------|
G|-----0---0---0-|-----0---0---0-|-----0---0-----|---------------|
D|---------------|---------------|---------------|---------------|
A|---------------|-2-----2-----2-|-3-----3-----3-|-3-------------|
E|-3-----3-----3-|---------------|---------------|---------------|
      "But not me__________________ I'm alive"


Chorus:
E|---------------|---------------|---------------|---------------|
B|-5---------5---|-8---------8---|-7---------7---|-5---------5---|
G|-----0---0-----|-----0---0-----|-----0---0-----|-----0---0-----|
D|-2-----2-----2-|-5-----5-----5-|-4-----4-----4-|-2-----2-----2-|
A|---------------|---------------|---------------|---------------|
E|---------------|---------------|---------------|---------------|
    "And today you know that's good enough for me"
E|---------------|---------------|---------------|---------------|
B|-5---------5---|-8---------8---|-7---------7---|-5---------5---|
G|-----0---0-----|-----0---0-----|-----0---0-----|-----0---0-----|
D|-2-----2-----2-|-5-----5-----5-|-4-----4-----4-|-2-----2-----2-|
A|---------------|---------------|---------------|---------------|
E|---------------|---------------|---------------|---------------|
    "Breathing in and out's a blessing can't you see"
E|---------------|---------------|---------------|---------------|
B|-5---------5---|-8---------8---|-7---------7---|-5---------5---|
G|-----0---0-----|-----0---0-----|-----0---0-----|-----0---0-----|
D|-2-----2-----2-|-5-----5-----5-|-4-----4-----4-|-2-----2-----2-|
A|---------------|---------------|---------------|---------------|
E|---------------|---------------|---------------|---------------|
     "Today's the first day of the rest of my life"
E|---------------|---------------|---------------|---------------|
B|-3---------3---|-4---------4---|-5---------5---|-4---------4---|
G|-----0---0-----|-----0---0-----|-----0---0-----|-----0---0-----|
D|---------------|---------------|---------------|---------------|
A|---------------|-2-----2-----2-|-3-----3-----3-|-3-----3-----3-|
E|-3-----3-----3-|---------------|---------------|---------------|
  "And I'm alive__________________ and well"
E|---------------|---------------|---------------|---------------|
B|-3---------3---|-4---------4---|-5---------5---|-4-------------|
G|-----0---0---0-|-----0---0---0-|-----0---0-----|---------------|
D|---------------|---------------|---------------|---------------|
A|---------------|-2-----2-----2-|-3-----3-----3-|-3-------------|
E|-3-----3-----3-|---------------|---------------|---------------|
  "And I'm alive__________________ and well"


Bridge:
E|---------------|---------------|---------------|---------------|
B|-5---------5---|-8---------8---|-7---------7---|-5---------5---|
G|-----0---0-----|-----0---0-----|-----0---0-----|-----0---0-----| x2
D|-2-----2-----2-|-5-----5-----5-|-4-----4-----4-|-2-----2-----2-|
A|---------------|---------------|---------------|---------------|
E|---------------|---------------|---------------|---------------|

E|---------------|---------------|---------------|---------------|
B|-7---------7---|-7---------7---|-10--------10--|-8---------8---|
G|-----0---0-----|-----0---0-----|-----0---0-----|-----0---0-----|
D|-4-----4-----4-|-4-----4-----4-|-7-----7-----7-|-5-----5-----5-|
A|---------------|---------------|---------------|---------------|
E|---------------|---------------|---------------|---------------|

E|---------------|---------------|---------------|---------------|
B|-10--------10--|-7---------7---|-5---------5---|-5---------5---|
G|-----0---0-----|-----0---0-----|-----0---0-----|-----0---0-----|
D|-7-----7-----7-|-4-----4-----4-|-2-----2-----2-|-2-----2-----2-|
A|---------------|---------------|---------------|---------------|
E|---------------|---------------|---------------|---------------|

E|---------------|
B|-3-------------|
G|---------------|
D|-0-------------|
A|---------------|
E|-----------0-2-|


Verse:
E|---------------|---------------|---------------|---------------|
B|-3---------3---|-4---------4---|-5---------5---|-4---------4---|
G|-----0---0-----|-----0---0-----|-----0---0-----|-----0---0-----|
D|---------------|---------------|---------------|---------------|
A|---------------|-2-----2-----2-|-3-----3-----3-|-3-----3-----3-|
E|-3-----3-----3-|---------------|---------------|---------------|
     "The stars are dancing on the water here tonight"
E|---------------|---------------|---------------|---------------|
B|-3---------3---|-4---------4---|-5---------5---|-4-------------|
G|-----0---0---0-|-----0---0---0-|-----0---0-----|---------------|
D|---------------|---------------|---------------|---------------|
A|---------------|-2-----2-----2-|-3-----3-----3-|-3-------------|
E|-3-----3-----3-|---------------|---------------|---------------|
  "It's good for the soul when there's not a soul in sight"
E|---------------|---------------|---------------|---------------|
B|-3---------3---|-4---------4---|-5---------5---|-4---------4---|
G|-----0---0-----|-----0---0-----|-----0---0-----|-----0---0-----|
D|---------------|---------------|---------------|---------------|
A|---------------|-2-----2-----2-|-3-----3-----3-|-3-----3-----3-|
E|-3-----3-----3-|---------------|---------------|---------------|
   "The motor's caught its wind and brought me back to life"
E|---------------|---------------|---------------|---------------|
B|-3---------3---|-4---------4---|-5---------5---|-4-------------|
G|-----0---0---0-|-----0---0---0-|-----0---0-----|---------------|
D|---------------|---------------|---------------|---------------|
A|---------------|-2-----2-----2-|-3-----3-----3-|-3-------------|
E|-3-----3-----3-|---------------|---------------|---------------|
  "And I'm alive__________________ and well"


Chorus:
E|---------------|---------------|---------------|---------------|
B|-5---------5---|-8---------8---|-7---------7---|-5---------5---|
G|-----0---0-----|-----0---0-----|-----0---0-----|-----0---0-----|
D|-2-----2-----2-|-5-----5-----5-|-4-----4-----4-|-2-----2-----2-|
A|---------------|---------------|---------------|---------------|
E|---------------|---------------|---------------|---------------|
    "And today you know that's good enough for me"
E|---------------|---------------|---------------|---------------|
B|-5---------5---|-8---------8---|-7---------7---|-5---------5---|
G|-----0---0-----|-----0---0-----|-----0---0-----|-----0---0-----|
D|-2-----2-----2-|-5-----5-----5-|-4-----4-----4-|-2-----2-----2-|
A|---------------|---------------|---------------|---------------|
E|---------------|---------------|---------------|---------------|
    "Breathing in and out's a blessing can't you see"
E|---------------|---------------|---------------|---------------|
B|-5---------5---|-8---------8---|-7---------7---|-5---------5---|
G|-----0---0-----|-----0---0-----|-----0---0-----|-----0---0-----|
D|-2-----2-----2-|-5-----5-----5-|-4-----4-----4-|-2-----2-----2-|
A|---------------|---------------|---------------|---------------|
E|---------------|---------------|---------------|---------------|
     "Today's the first day of the rest of my life"
E|---------------|---------------|---------------|---------------|
B|-3---------3---|-4---------4---|-5---------5---|-4---------4---|
G|-----0---0-----|-----0---0-----|-----0---0-----|-----0---0-----|
D|---------------|---------------|---------------|---------------|
A|---------------|-2-----2-----2-|-3-----3-----3-|-3-----3-----3-|
E|-3-----3-----3-|---------------|---------------|---------------|
  "And I'm alive__________________ and well"
E|---------------|---------------|---------------|---------------|
B|-3---------3---|-4---------4---|-5---------5---|-4---------4---|
G|-----0---0---0-|-----0---0---0-|-----0---0-----|-----0---0-----|
D|---------------|---------------|---------------|---------------|
A|---------------|-2-----2-----2-|-3-----3-----3-|-3-----3-----3-|
E|-3-----3-----3-|---------------|---------------|---------------|
  "And I'm alive__________________ and well"

Whats up. there was one tab up and it was okay. but this one is 99% perfect.



The first section is just the whole song laid out. 
The second is the whole song with lyrics.

######################################################################

                             SECTION 1

######################################################################

Tuning: Standard with capo on 4th fret.(Tab relative to capo)
Key: D#


Intro/Verse:
E|---------------|---------------|---------------|---------------|
B|-3---------3---|-4---------4---|-5---------5---|-4---------4---|
G|-----0---0-----|-----0---0-----|-----0---0-----|-----0---0-----|
D|---------------|---------------|---------------|---------------|
A|---------------|-2-----2-----2-|-3-----3-----3-|-3-----3-----3-|
E|-3-----3-----3-|---------------|---------------|---------------|

E|---------------|---------------|---------------|---------------|
B|-3---------3---|-4---------4---|-5---------5---|-4-------------|
G|-----0---0---0-|-----0---0---0-|-----0---0-----|---------------|
D|---------------|---------------|---------------|---------------|
A|---------------|-2-----2-----2-|-3-----3-----3-|-3-------------|
E|-3-----3-----3-|---------------|---------------|---------------|



Chorus:
E|---------------|---------------|---------------|---------------|
B|-5---------5---|-8---------8---|-7---------7---|-5---------5---|
G|-----0---0-----|-----0---0-----|-----0---0-----|-----0---0-----|
D|-2-----2-----2-|-5-----5-----5-|-4-----4-----4-|-2-----2-----2-|
A|---------------|---------------|---------------|---------------|
E|---------------|---------------|---------------|---------------|


Bridge:
E|---------------|---------------|---------------|---------------|
B|-5---------5---|-8---------8---|-7---------7---|-5---------5---|
G|-----0---0-----|-----0---0-----|-----0---0-----|-----0---0-----| x2
D|-2-----2-----2-|-5-----5-----5-|-4-----4-----4-|-2-----2-----2-|
A|---------------|---------------|---------------|---------------|
E|---------------|---------------|---------------|---------------|

E|---------------|---------------|---------------|---------------|
B|-7---------7---|-7---------7---|-10--------10--|-8---------8---|
G|-----0---0-----|-----0---0-----|-----0---0-----|-----0---0-----|
D|-4-----4-----4-|-4-----4-----4-|-7-----7-----7-|-5-----5-----5-|
A|---------------|---------------|---------------|---------------|
E|---------------|---------------|---------------|---------------|

E|---------------|---------------|---------------|---------------|
B|-10--------10--|-7---------7---|-5---------5---|-5---------5---|
G|-----0---0-----|-----0---0-----|-----0---0-----|-----0---0-----|
D|-7-----7-----7-|-4-----4-----4-|-2-----2-----2-|-2-----2-----2-|
A|---------------|---------------|---------------|---------------|
E|---------------|---------------|---------------|---------------|

E|---------------|
B|-3-------------|
G|---------------|
D|-0-------------|
A|---------------|
E|---------------|


#########################################################################

                              SECTION 2

#########################################################################
This version is fully laid out to show you where each part is sung.

Intro/Verse:
E|---------------|---------------|---------------|---------------|
B|-3---------3---|-4---------4---|-5---------5---|-4---------4---|
G|-----0---0-----|-----0---0-----|-----0---0-----|-----0---0-----|
D|---------------|---------------|---------------|---------------|
A|---------------|-2-----2-----2-|-3-----3-----3-|-3-----3-----3-|
E|-3-----3-----3-|---------------|---------------|---------------|
       "It's so damn easy to say that life's so hard"
E|---------------|---------------|---------------|---------------|
B|-3---------3---|-4---------4---|-5---------5---|-4-------------|
G|-----0---0-----|-----0---0-----|-----0---0-----|---------------|
D|---------------|---------------|---------------|---------------|
A|---------------|-2-----2-----2-|-3-----3-----3-|-3-------------|
E|-3-----3-----3-|---------------|---------------|---------------|
      "Everybody's got their share of battle scars"
E|---------------|---------------|---------------|---------------|
B|-3---------3---|-4---------4---|-5---------5---|-4---------4---|
G|-----0---0-----|-----0---0-----|-----0---0-----|-----0---0-----|
D|---------------|---------------|---------------|---------------|
A|---------------|-2-----2-----2-|-3-----3-----3-|-3-----3-----3-|
E|-3-----3-----3-|---------------|---------------|---------------|
       "As for me, I'd like to thank my lucky stars"
E|---------------|---------------|---------------|---------------|
B|-3---------3---|-4---------4---|-5---------5---|-4-------------|
G|-----0---0-----|-----0---0-----|-----0---0-----|---------------|
D|---------------|---------------|---------------|---------------|
A|---------------|-2-----2-----2-|-3-----3-----3-|-3-------------|
E|-3-----3-----3-|---------------|---------------|---------------|
       "That I'm alive_______________ and well"
E|---------------|---------------|---------------|---------------|
B|-3---------3---|-4---------4---|-5---------5---|-4---------4---|
G|-----0---0-----|-----0---0-----|-----0---0-----|-----0---0-----|
D|---------------|---------------|---------------|---------------|
A|---------------|-2-----2-----2-|-3-----3-----3-|-3-----3-----3-|
E|-3-----3-----3-|---------------|---------------|---------------|
            "It'd be easy to add up all the pain"
E|---------------|---------------|---------------|---------------|
B|-3---------3---|-4---------4---|-5---------5---|-4-------------|
G|-----0---0-----|-----0---0-----|-----0---0-----|---------------|
D|---------------|---------------|---------------|---------------|
A|---------------|-2-----2-----2-|-3-----3-----3-|-3-------------|
E|-3-----3-----3-|---------------|---------------|---------------|
   "And all the dreams you've sat and watched go up in flames"
E|---------------|---------------|---------------|---------------|
B|-3---------3---|-4---------4---|-5---------5---|-4---------4---|
G|-----0---0-----|-----0---0-----|-----0---0-----|-----0---0-----|
D|---------------|---------------|---------------|---------------|
A|---------------|-2-----2-----2-|-3-----3-----3-|-3-----3-----3-|
E|-3-----3-----3-|---------------|---------------|---------------|
      "Dwell on the wreckage as it smolders in the rain"
E|---------------|---------------|---------------|---------------|
B|-3---------3---|-4---------4---|-5---------5---|-4-------------|
G|-----0---0----|-----0---0-----|-----0---0-----|---------------|
D|---------------|---------------|---------------|---------------|
A|---------------|-2-----2-----2-|-3-----3-----3-|-3-------------|
E|-3-----3-----3-|---------------|---------------|---------------|
      "But not me__________________ I'm alive"


Chorus:
E|---------------|---------------|---------------|---------------|
B|-5---------5---|-8---------8---|-7---------7---|-5---------5---|
G|-----0---0-----|-----0---0-----|-----0---0-----|-----0---0-----|
D|-2-----2-----2-|-5-----5-----5-|-4-----4-----4-|-2-----2-----2-|
A|---------------|---------------|---------------|---------------|
E|---------------|---------------|---------------|---------------|
    "And today you know that's good enough for me"
E|---------------|---------------|---------------|---------------|
B|-5---------5---|-8---------8---|-7---------7---|-5---------5---|
G|-----0---0-----|-----0---0-----|-----0---0-----|-----0---0-----|
D|-2-----2-----2-|-5-----5-----5-|-4-----4-----4-|-2-----2-----2-|
A|---------------|---------------|---------------|---------------|
E|---------------|---------------|---------------|---------------|
    "Breathing in and out's a blessing can't you see"
E|---------------|---------------|---------------|---------------|
B|-5---------5---|-8---------8---|-7---------7---|-5---------5---|
G|-----0---0-----|-----0---0-----|-----0---0-----|-----0---0-----|
D|-2-----2-----2-|-5-----5-----5-|-4-----4-----4-|-2-----2-----2-|
A|---------------|---------------|---------------|---------------|
E|---------------|---------------|---------------|---------------|
     "Today's the first day of the rest of my life"
E|---------------|---------------|---------------|---------------|
B|-3---------3---|-4---------4---|-5---------5---|-4---------4---|
G|-----0---0-----|-----0---0-----|-----0---0-----|-----0---0-----|
D|---------------|---------------|---------------|---------------|
A|---------------|-2-----2-----2-|-3-----3-----3-|-3-----3-----3-|
E|-3-----3-----3-|---------------|---------------|---------------|
  "And I'm alive__________________ and well"
E|---------------|---------------|---------------|---------------|
B|-3---------3---|-4---------4---|-5---------5---|-4-------------|
G|-----0---0-----|-----0---0-----|-----0---0-----|---------------|
D|---------------|---------------|---------------|---------------|
A|---------------|-2-----2-----2-|-3-----3-----3-|-3-------------|
E|-3-----3-----3-|---------------|---------------|---------------|
  "And I'm alive__________________ and well"


Bridge:
E|---------------|---------------|---------------|---------------|
B|-5---------5---|-8---------8---|-7---------7---|-5---------5---|
G|-----0---0-----|-----0---0-----|-----0---0-----|-----0---0-----| x2
D|-2-----2-----2-|-5-----5-----5-|-4-----4-----4-|-2-----2-----2-|
A|---------------|---------------|---------------|---------------|
E|---------------|---------------|---------------|---------------|

E|---------------|---------------|---------------|---------------|
B|-7---------7---|-7---------7---|-10--------10--|-8---------8---|
G|-----0---0-----|-----0---0-----|-----0---0-----|-----0---0-----|
D|-4-----4-----4-|-4-----4-----4-|-7-----7-----7-|-5-----5-----5-|
A|---------------|---------------|---------------|---------------|
E|---------------|---------------|---------------|---------------|

E|---------------|---------------|---------------|---------------|
B|-10--------10--|-7---------7---|-5---------5---|-5---------5---|
G|-----0---0-----|-----0---0-----|-----0---0-----|-----0---0-----|
D|-7-----7-----7-|-4-----4-----4-|-2-----2-----2-|-2-----2-----2-|
A|---------------|---------------|---------------|---------------|
E|---------------|---------------|---------------|---------------|

E|---------------|
B|-3-------------|
G|---------------|
D|-0-------------|
A|---------------|
E|-----------0-2-|


Verse:
E|---------------|---------------|---------------|---------------|
B|-3---------3---|-4---------4---|-5---------5---|-4---------4---|
G|-----0---0-----|-----0---0-----|-----0---0-----|-----0---0-----|
D|---------------|---------------|---------------|---------------|
A|---------------|-2-----2-----2-|-3-----3-----3-|-3-----3-----3-|
E|-3-----3-----3-|---------------|---------------|---------------|
     "The stars are dancing on the water here tonight"
E|---------------|---------------|---------------|---------------|
B|-3---------3---|-4---------4---|-5---------5---|-4-------------|
G|-----0---0-----|-----0---0-----|-----0---0-----|---------------|
D|---------------|---------------|---------------|---------------|
A|---------------|-2-----2-----2-|-3-----3-----3-|-3-------------|
E|-3-----3-----3-|---------------|---------------|---------------|
  "It's good for the soul when there's not a soul in sight"
E|---------------|---------------|---------------|---------------|
B|-3---------3---|-4---------4---|-5---------5---|-4---------4---|
G|-----0---0-----|-----0---0-----|-----0---0-----|-----0---0-----|
D|---------------|---------------|---------------|---------------|
A|---------------|-2-----2-----2-|-3-----3-----3-|-3-----3-----3-|
E|-3-----3-----3-|---------------|---------------|---------------|
   "The motor's caught its wind and brought me back to life"
E|---------------|---------------|---------------|---------------|
B|-3---------3---|-4---------4---|-5---------5---|-4-------------|
G|-----0---0-----|-----0---0-----|-----0---0-----|---------------|
D|---------------|---------------|---------------|---------------|
A|---------------|-2-----2-----2-|-3-----3-----3-|-3-------------|
E|-3-----3-----3-|---------------|---------------|---------------|
  "And I'm alive__________________ and well"


Chorus:
E|---------------|---------------|---------------|---------------|
B|-5---------5---|-8---------8---|-7---------7---|-5---------5---|
G|-----0---0-----|-----0---0-----|-----0---0-----|-----0---0-----|
D|-2-----2-----2-|-5-----5-----5-|-4-----4-----4-|-2-----2-----2-|
A|---------------|---------------|---------------|---------------|
E|---------------|---------------|---------------|---------------|
    "And today you know that's good enough for me"
E|---------------|---------------|---------------|---------------|
B|-5---------5---|-8---------8---|-7---------7---|-5---------5---|
G|-----0---0-----|-----0---0-----|-----0---0-----|-----0---0-----|
D|-2-----2-----2-|-5-----5-----5-|-4-----4-----4-|-2-----2-----2-|
A|---------------|---------------|---------------|---------------|
E|---------------|---------------|---------------|---------------|
    "Breathing in and out's a blessing can't you see"
E|---------------|---------------|---------------|---------------|
B|-5---------5---|-8---------8---|-7---------7---|-5---------5---|
G|-----0---0-----|-----0---0-----|-----0---0-----|-----0---0-----|
D|-2-----2-----2-|-5-----5-----5-|-4-----4-----4-|-2-----2-----2-|
A|---------------|---------------|---------------|---------------|
E|---------------|---------------|---------------|---------------|
     "Today's the first day of the rest of my life"
E|---------------|---------------|---------------|---------------|
B|-3---------3---|-4---------4---|-5---------5---|-4---------4---|
G|-----0---0-----|-----0---0-----|-----0---0-----|-----0---0-----|
D|---------------|---------------|---------------|---------------|
A|---------------|-2-----2-----2-|-3-----3-----3-|-3-----3-----3-|
E|-3-----3-----3-|---------------|---------------|---------------|
  "And I'm alive__________________ and well"


Outro:
E|---------------|---------------|---------------|---------------|
B|-3---------3---|-4---------4---|-5---------5---|-4---------4---|
G|-----0---0-----|-----0---0-----|-----0---0-----|-----0---0-----|
D|---------------|---------------|---------------|---------------|
A|---------------|-2-----2-----2-|-3-----3-----3-|-3-----3-----3-|
E|-3-----3-----3-|---------------|---------------|---------------|

E|---------------|---------------|---------------|---------------|
B|-3---------3---|-4---------4---|-5---------5---|-4---------4---|
G|-----0---0-----|-----0---0-----|-----0---0-----|-----0---0-----|
D|---------------|---------------|---------------|---------------|
A|---------------|-2-----2-----2-|-3-----3-----3-|-3-----3-----3-|
E|-3-----3-----3-|---------------|---------------|---------------|

Another guitar plays this:
E|---------------|---------------|---------------|
B|---------------|---------------|---------------|
G|-----0-2-2/4---|-2p0-2---0-2/4-|-0---2---0---0-|
D|---0-----------|---------------|-----------0---|
A|---------------|---------------|---------------|
E|---------------|---------------|---------------|

While the other one ends on this:
E|-3-------------|
B|-3-------------|
G|-0-------------|
D|-0-------------|
A|-2-------------|
E|-3-------------|


Well there you have it. It's not too hard
Tap to rate this tab
 
# A B C D E F G H I J K L M N O P Q R S T U V W X Y Z