Song name
# A B C D E F G H I J K L M N O P Q R S T U V W X Y Z

Kenny Chesney - Anything But Mine tab

Anything But Mine - Kenny Chesney
-------------------------------------------------------------------------------
Tabbed by:mitch32789		
Email:

Tuning:Standard


Chords Used: E; Asus2; B7


E:e|---| 
  B|---|
  G|1--|
  D|-2-|
  A|-2-|
  E|---|
Asus2: e|---|
       B|---|
       G|-2-|
       D|-2-|
       A|---|
       E|-X-|

B7: e|---|
    B|---|
    G|-2-|
    D|-1-|
    A|-2-|
    E|---|

Intro:

e|-5h7--7--7--7--5--4h5--5--0---5h7--7--7--7--5--4h5--5--0-------------------|
B|---------------------------------------------------------------------------|
G|---------------------------------------------------------------------------|
D|---------------------------------------------------------------------------|
A|---------------------------------------------------------------------------|
E|---------------------------------------------------------------------------|
First Verse Picking: Throughout first part of first verse
e|--------0--------------------------0---------------------------------------|
B|---0-------0-----0-----------0--------0-----0------------------------------|
G|-----1--------1-----------------2--------2---------------------------------|
D|---------------------------------------------------------------------------|
A|-------------------------0-------------------------------------------------|
E|-0-------------------------------------------------------------------------|
First Verse Picking: "Theres a warm wind coming in..."
e|---------0-----------------------------------------------------------------|
B|----0-------0-----0--------------------------------------------------------|
G|-------2-------2-----------------------------------------------------------|
D|---------------------------------------------------------------------------|
A|-1-------------------------------------------------------------------------|
E|---------------------------------------------------------------------------|
..."Making it's way past the hotel walls..." (Continue until chorus)
e|--------0--------------------------0---------------------------------------|
B|---0-------0-----0-----------0--------0-----0------------------------------|
G|-----1--------1-----------------2--------2---------------------------------|
D|---------------------------------------------------------------------------|
A|-------------------------0-------------------------------------------------|
E|-0-------------------------------------------------------------------------|


(chorus)
E                                     Asus2
But in the mornin' I'm leavin' makin' my way back to Cleveland

   E                                  Asus2
So tonight I hope that I will do just fine

E                             Asus2      E  B7        E
And I don't see how you could ever be anything but mine

e|-5h7--7--7--7--5--4h5--5--0------------------------------------------------|
B|---------------------------------------------------------------------------|
G|---------------------------------------------------------------------------|
D|---------------------------------------------------------------------------|
A|---------------------------------------------------------------------------|
E|---------------------------------------------------------------------------|

(vers2)
E                                   Asus2               
There's a local band playin' at the Seaside Pavilion

E                                 Asus2  
And I got just enough cash to get us in 
Solo
e|-------------------------|
B|-7-5-7---5---------------|
G|-------6-----------------|
D|-------------------------|
A|-------------------------|
E|-------------------------|

E                            Asus2                           
And as we are dancin' Mary's wrappin' her arms around me

E                                       Asus2 
And I can feel the steam of summer on my skin

(bridge)
B7                           Asus2 
In the midst of the music I tell her I love her

E                                     Asus2 
We both laugh 'cause we know it isn't true
Solo
e|-------------------------|
B|-------------------------|
G|-------------------------|
D|-4-2-4---2---------------|
A|-------4-----------------|
E|-------------------------|


E                                    Asus2 
Oh but Mary there's a summer drawin' to an end tonight

E                          B7             E
And there's so much that I long to do to you

(chorus)
E                                    Asus2 
But in the mornin' I'm leavin makin' my way back to Cleveland

E                                     Asus2    
So tonight I hope that I will do just fine

E                             Asus2     E  B7         E   
And I don't see how you could ever be anything but mine

(electric solo 1)

(chorus)
E                                       Asus2                                    
But in the mornin' I'm leavin' makin' my way back to Cleveland

E                                   Asus2    
So tonight I hope that I will do just fine

E                             Asus2      E  B7        E
And I don't see how you could ever be anything but mine 

E                              Asus2     E  B7        E   
Mary I don't see how you could ever be anything but mine

(electric solo2)


Oooooooh...


Oooooooh....

Oooooooh...
(fade)

E                                     Asus2                        
But in the mornin' I'm leavin' makin' my way back to Cleveland

E                                    Asus2    
So tonight I hope that I will do just fine

E                             Asus2     E  B7        E
And I don't see how you could ever be anything but mine.






Tap to rate this tab
# A B C D E F G H I J K L M N O P Q R S T U V W X Y Z