Song name
# A B C D E F G H I J K L M N O P Q R S T U V W X Y Z

Kenny Wayne Shepherd - Born With A Broken Heart tab

Kenny wayne shepherd- Born with a broken heart    By: Stu
Ledbetter heights

tuned half a step down 

Intro:
:-----------------------8-8--------------------------10-10---:
:-----------------------8-8--------------------------10-10---:
:---------------------------4x---0--x-----------0------------:
:---0--x-----------0-------------0--x-----x-----0------------:
:---0--x-----x-----0-------------0--0--3--0--5---------------:
:---0--0--3--0--5--------------------------------------------:


:-----------------------10--10---------------------8-8-------:
:-----------------------10--10---------------------8-8-------:
:---0--x-----------0-----------------------------------2x----:
:---0--x-----x-----0------------0--x-----------0-------------:
:---0--0--3--0--5---------------0--x-----x-----0-------------:
:-------------------------------0--0--3--0--5----------------:

(play this in the verse) ,  Chorus
:----------------0--------------------------------8-8-----:
:-------------3--3--3--3-3------------------------8-8-----:                 
:-------------1--1--1--1-1----0---0---0---0---0-----------:
:---0--x------2--2--2--2-2--x-0---0---0---0---0-----------:
:---0--x------2--2--2--2-2--x----x---x---x---x------------:
:---0--0--3---0-------------0----2---3---4---5------------:

verse: play this then the riff above wich is the chorus,     (example)
:--------------------8-8------------------------10--10----: Chorus:     
:--------------------8-8------------------------7---7-----: E7
:--------------------------6x--0--x-------------9---9--2x-:burnin like a..
:---0--x-----------------------0--x-----x-------10--10----:born with a bro.
:---0--x-----x-----------------0--0--3--0--5--------------: :-2-3-0-4--5
:---0--0--3--0--5-----------------------------------------:(just listen to
                                                            the song for
                                                            timing.)
     Am7
1rst guitar solo: Am7, Dm7, E7                          1/2
:---------------------------------------------5-------------------------:
:---8h10--10--10--10-(10)----8--------------5----8-7-----7--7p5---8--5--:
:-------------------------------9\7--5--b7--------------b7--7p5---------:
:-----------------------------------------------------------------------:
:-----------------------------------------------------------------------:
:-----------------------------------------------------------------------:

  1/2               1/2         full             full  
:------------------------------------------------------------------[
:---------------7--------------------------5-6-0-----5-----5-(8)---[
:---b7--7p5-----7----b5--------5-b7-(7)-----------b7----7----------[
:------------7----------7--(7)-------------------------------------[
:------------------------------------------------------------------[
:------------------------------------------------------------------[

   Dm7                                                         
:--------------------8---------------------------------------------------:
:---8/10--10--(10)-----8h10--10--10--(10)---8--------------8-------------:
:----------------------------------------------9\7---5-7h9---9-9\7p5-----:
:---------------------------------------------------------------------7--:
:------------------------------------------------------------------------:
:------------------------------------------------------------------------:
                                                            E7
 Am7     1/2          full      1/2          full           1/2
:---------------------------5----------5--(5)---------5---5---b7----5-(7)-:
:--------------------5--------5---b8-----------b8-------8-----------------:
:---5---7--b5--------5--b7------------------------------------------------:
:---------------7---------------------------------------------------------:
:-------------------------------------------------------------------------:
:-------------------------------------------------------------------------:
                                                      Am7
                                             1/4             1/2
:---5--7p5-----5-------------------------------------------5---------------[
:-----------7-----8h10-(10)^^^----------------------0---0--5------------7--[
:------------------------------5--9\7---5--7--b5----0---0-----b7--7p5---7-5[
:-------------------------------------------------7---7---------------7----[
:--------------------------------------------------------------------------[
:--------------------------------------------------------------------------[

                                           1/2
:-------0--5--------------------------------8------------------------:
:-------0--5---0--8h10--10^^^^--(10)^^--0--b7---0--10--10-10---(10)--:
:--------------0------------------------0-------0--------------------:
:---7----------------------------------------------------------------:
:--------------------------------------------------------------------:
:--------------------------------------------------------------------:

                                                  1/2
:------------8-------------5-----------------------8----------------------:
:---10---10--------10p8\5------8/10--(10)--10^^^--b7---0--8h10--10^^-(10)-:
:------------------------------------------------------0--------10--------:
:-------------------------------------------------------------------------:
:-------------------------------------------------------------------------:
:-------------------------------------------------------------------------:

              1/2                      1/2
:--------------8----8----------5---8----b8------5---7--5h7p5---5-----------:
:---10^^^-0---b7-------10p8p5----8--------------0---7--------8----8/10-10^^:
:---------0---------------------------------7p5----------------------------:
:--------------------------------------------------------------------------:
:--------------------------------------------------------------------------:
:--------------------------------------------------------------------------;

               full^^^^                                                 1/2
:---0----------------------------------------------------------------------:
:---0----------------------------------------------------------------------:
:---0--9\7---5--b7-------7---(7)---5--7--------------------------------0---:
:---------------------------------------7^^^^-5----------------7---7---0-b7:
:------------------------------------------------7---6--5--7/9---9---------:
:--------------------------------------------------------------------------:

           1/4             1\2                                           1/2
:---5------------------------------------------------------------------0---8
:------8----------------------------------------8---8---8---8---8--10--0--b7
:---------7/b9-----9--8--7--b5-------------7/9----9---9---9---9--------0----
:----------------------------------7-5-7------------------------------------
:---------------------------------------------------------------------------
:---------------------------------------------------------------------------

End of 1rst solo

:-----------------------8-8------:
:-----------------------8-8------:
:----------------------------3x--:  Then play Chorus
:---0--x-----------0-------------:
:---0--x-----x-----0-------------:
:---0--0--3--0--5----------------:

E7
Burnin like a shootin star

Born with a broken heart...


well there it is...hope you enjoy...dont know the 2nd solo..but when i learn it ill will post....later Stu






Tap to rate this tab
 
# A B C D E F G H I J K L M N O P Q R S T U V W X Y Z