Song name
# A B C D E F G H I J K L M N O P Q R S T U V W X Y Z

Kerbdog - Sally tab

Song: Sally by kerbdog

This is an acoustic version Cormac played solo on an Irish radio station called 98FM.
You tube 'Kerbdog on Totally Irish' to listen to it. It's a great version check it out. I
wouldn't claim to have a great ear but I think this sounds pretty close. You'll need to 
listen to him play to hear where he throws in the little hammer-on s and so forth.
I hope you enjoy it- Kerbdog never got the acclaim they were due I feel.

Drop D Tune:

Intro/Verse

If I had a clue and a room, I would need a car to get you home tonight again Oh yeah again.
e|----------------------------------------------|
B|----------------------------------------------|
G|6-6-6--4-44-6-6-6--4-44-4--6-6-6--4-4---5-5-5-|
D|4-4-4--2-22-4-4-4--2-22-2--4-4-4--2-2---7-7-7-|
A|4-4-4--2-22-4-4-4--2-22-2--4-4-4--2-2---7-7-7-|
D|4-4-4--2-22-4-4-4--2-22-2--4-4-4--2-2---7-7-7-|

Pre-chorus
Could you try out of sight?
For I haven't got a clue, I havenít got a clue, havenít

e|--0-0-0---------------------------------|
B|--3-3-3---------------------------------|
G|--2-2-2-6-66-6--9-99-9--5-55-5--5-55-55-|
D|--0-0-0-4-44-4--7-77-7--3-33-3--3-33-33-|
A|--0-0-0-4-44-4--7-77-7--3-33-3--3-33-33-|
D|--0-0-0-4-44-4--7-77-7--3-33-3--3-33-33-|

got what it takes to.....

Chorus
ďGot It Wrong, denim suits, I donít know.. what to-hit...Ē
e|------------------------------------|
B|------------------------------------|
G|------------------9-9-5-5-5--7-77-77|
D|--7-7-77-10-1010-1010-3-3-3--5-55-55|
A|--7-7-77-10-1010-1010-3-3-3--5-55-55|
D|--7-7-77-10-1010-1010-3-3-33-5-55-55|

"...thatís just what I was told,
I donít care if I was sold..."
e|--000----------0-0-0-0--|
B|--333----------7-7-7-7--|
G|--222----66----7-7-7-7--|
D|--000----44----0-0-0-0--|
A|--000----44----0-0-0-0--|

".so you were right...Sally flied"

e|----------------------------------------------|
B|----------------------------------------------|
G|--3333-4444-5-5-55-7-77-77-9-9-99--9--9-9--9-9|
D|--2222-2222-3-3-33-5-55-55-7-7-77-10-1010-1010|
A|--0000-2222-3-3-33-5-55-55-7-7-77-10-1010-1010|
D|--0000-2222-3-3-33-5-55-55-7-7-77-10-1010-1010|

"..I accept and to take the blame, can you fake when the fake is lame...")
e|--000----------0-0-0-0--|
B|--333----------7-7-7-7--|
G|--222----66----7-7-7-7--|
D|--000----44----0-0-0-0--| x3/4
A|--000----44----0-0-0-0--|
The change:
"...if you need a little help to move let me know,
....vilify me if it makes the cut, turn you on..."
ď... and Iím sure by the time you gain...............

On acoustic verison, Cormac throws in a few hammer-onís on the D here and there, like so:
e|-----------------0-00-00-0----------------|
B|-----------------3-33-33-3-33-33--3-33-33-|
G|-5-55-55-4-44-44-2-22-22-2-02-02--2-02-02-|
D|-3-33-33-2-22-22-0-00-00-0-00-00--0-00-00-| X3
A|-3-33-33-2-22-22-0-00-00-0-00-00--0-00-00-|
D|-3-33-33-2-22-22-0-00-00-0-00ó00--0-00-00-|



Slower back into the verse.
Thatís it.
Tap to rate this tab
# A B C D E F G H I J K L M N O P Q R S T U V W X Y Z