Song name
# A B C D E F G H I J K L M N O P Q R S T U V W X Y Z

Kesha - Tik Tok tab

E-------------------|
B-------------------|
G-------------------|
D-0-0-0-0-2-2-3-3-3-|
A-------------------|
E-------------------|

E------------------|
B------------------|
G--2---------------|
D-0-0-2-2-2-3-3----|
A------------------|
E------------------|

Chorus:

E-1--3--5----3--5--3--|
B-3--5--6----3--6--5--|
G-3--5--7----3--7--5--|
D-3--5--7-X3-3--7--5--|
A-1--3--5----5--5--3--|
E------------3--------|X2
Tap to rate this tab
# A B C D E F G H I J K L M N O P Q R S T U V W X Y Z