Song name
# A B C D E F G H I J K L M N O P Q R S T U V W X Y Z

Kesha - Tik Tok tab

==============================
TIK TOK - Ke$ha (Animal, 2010)
==============================
Tabbed: Unicorn Death
albinojellyfish1@gmail.com
==============================

Guitar I - Standard (E A D G B E)

INTRO:
e|------------------------------|-----------------------------|
B|------------------------------|-----------------------------|
G|------------------------------|----14-----------------------|
D|--12-12-12-12h14-14-15-15-15--|--12--12--12h14-14-15-15-15--|  
A|------------------------------|-----------------------------|
E|------------------------------|-----------------------------|   x2


VERSE:
e|----------------------------|
B|--7-7-7--7/9--9---10-10-10--|
G|--7-7-7--7/10-10--10-10-10--|
D|--5-5-5--5/7--7---8--8--8---|
A|----------------------------|
E|----------------------------|


CHORUS:
e|-------------------|
B|-------------------|
G|--3-3-3--5-5--7-7--|
D|--3-3-3--5-5--7-7--|
A|--1-1-1--3-3--5-5--|
E|-------------------|

[VERSE]
[CHORUS]

BREAKDOWN:
e|------------------------------------------------------------------|
B|------------------------------------------------------------------|
G|--14-12--------14-12--------14-12--------14-12--------------------|
D|--------15-12--------15-12--------15-12--------15-14-14-12-14-15--|
A|------------------------------------------------------------------|
E|------------------------------------------------------------------|  x4


[CHORUS x2]
Tap to rate this tab
# A B C D E F G H I J K L M N O P Q R S T U V W X Y Z