Song name
# A B C D E F G H I J K L M N O P Q R S T U V W X Y Z

Kettcar - Balu tab

-------------------------------------------------------------------------------
                             BALU - Kettcar
-------------------------------------------------------------------------------
Tabbed by: Jan Wartenberg
note: based on Tabs from choasis; added intermediate Part, corrected text, added 
picking/strumming info
Tuning: Standard

Capo on 3rd fret
(Intro 2x)
E|-----------------0-----------2-------------------|
H|-----3--------------3-----------3--------3-------|
G|--------0--------------0-----------0-----------2-|
D|-----------0--------------------------------0----|
A|--------------------------3----------------------|
E|--3-----------2-----------------------0----------|

E|-------------------------------------------------|
H|-------------------------------------------------|
G|-----0--2-----2--4-----0-----0--2-----2--4-------|
D|-----------0--------0--------------0--------0----|
A|--3-----------------------3----------------------|
E|-------------------------------------------------|

(play Intro again 2x)
Manche sagen, es wär' einfach, ich sage, es ist schwer, 
Denn du, ja, du bist Audrey Hepburn und ich Balu, der Bär, 
Immer Pläne schmiedend dastehen, so schön und stumm, 
Und ich, ich fang' an zu tanzen, werf' erstmal alles um.

(strumming)
G       D                 e
        Und gesucht und gefunden
e       D                  C
        In der Einsicht verbunden
C               D
Du gibst, was du brauchst
D                 C
Ich glaub was ich seh'
C           D                     G
Endlich mal etwas, das ich fast versteh'


G                     D
Frieden ist, wenn alle gleich sind
                     e
Sag an, was wir hier haben
                   D
Das Leben, das wir leben
                     C
Geschützt im Schützengraben
              D
Gesucht und gefunden
                    C
Du vergisst, was du weißt
D                           G
In dem Gefühl, wir wären eins


G / D / e  (picking from G on*)
D                            C
Und Du vergisst, wie Du heißt
D 

(full strums again)
G / C / D / em / D (2x)

(Intro part again 4x)
Manche sagen, es wär einfach, ich sage, es ist heikel, 
Du bist New York City und ich bin Wanne-Eickel, 
Wie die Dinge sich wohl anfühlen, wenn sie denn noch ganz wären, 
Ein Lebenslauf gebastelt, mit den Händen eines Tanzbären.

(strumming)
G       D                 e
        Und gesucht und gefunden
e       D                  C
        In der Einsicht verbunden
C               D
Du gibst, was du brauchst
D                 C

Ich glaub, was ich seh'
C           D                     G
Endlich mal etwas, das ich fast versteh'

G                     D
Frieden ist, wenn alle gleich sind
                     e
Sag an, was wir hier haben
                   D
Das Leben, das wir lieben
                     C
Geschützt im Schützengraben
              D
Gesucht und gefunden
                    C
Du vergisst, was du weißt
D                           G (picking from G on*)

In dem Gefühl, wir wär'n eins

D / e
D                         C
Und du vergisst, wie du heißt
D / C
D                      
Und du vergisst, was du weißt

G                 D
Vergiss Romeo und Julia
                 e
Wann gibt’s Abendbrot
                   D
Willst du wirklich tauschen
                  C
Am Ende waren sie tot
                          D
Ich werd' immer für dich da sein
          C
Bist du dabei
D
In dem Gefühl wir wären zwei

(Outro, still picking)
G D e D / G (end on G, single strum)


========================================================
*picking:
Always pluck bass string and the highest 3 strings twice,
example with G:
E|-----3-----3-----3-----------|
H|-------0-----0---------------|
G|---------0-----0-------------|
D|-----------------------------|
A|-----------------------------|
E|--3--------------------------|
Tap to rate this tab
 
# A B C D E F G H I J K L M N O P Q R S T U V W X Y Z