Song name
# A B C D E F G H I J K L M N O P Q R S T U V W X Y Z

Kettcar - Balu tab

Kettcar – Balu

>>> Please use a non-proportional font like Courier to view tabs and chord positions as 
as possible <<<

Capo 3rd Fret

Intro and Verses (vertical lines = beats)


 |       |       |       |        |       |       |       |
|--------------------0-----------|----2---------------------------|
|----3-------------------3-------|--------3-----------3-----------|
|--------0-------------------0---|------------0---------------2---|
|------------0-------------------|------------------------0-------|
|--------------------------------|3-------------------------------|
|3---------------2---------------|----------------0---------------|

 |       |       |       |        |       |       |       |
|--------------------------------|--------------------------------|
|--------------------0-----------|--------------------0-----------|
|----0---2-------2-----------0---|----0---2-------2-----------0---|
|------------0-----------0-------|------------0-----------0-------|
|3-------------------------------|3-------------------------------|
|--------------------------------|--------------------------------|


Ending (please notice repeats and different endings)


  |       |       |       |          |       |       |       |
||----------------3----------------|-----------------3----------------|
|*----3---------------3-------3----|-----3---------------3-------3----|
||--------0---------------0--------|---------0---------------0--------|
||------------0--------------------|-------------0--------------------|
|*---------------------------------|----------------------------------|
||3--------------------------------|-2--------------------------------|


  |       |       |       |        >1|       |       |       |
|-----------------3---------------||-----------------3---------------||
|-----3---------------3-------3---||-----3---------------3-------3---*|
|---------0---------------0-------||---------2---------------2-------||
|-------------0-------------------||-0-----------0-------------------||
|---------------------------------||---------------------------------*|
|-0-------------------------------||---------------------------------||


>2|       |       |       |          |       |       |       |
|-----------------3----------------|-3--------------------------------|
|-----3---------------3------------|-3--------------------------------|
|---------2---------------2---0----|-0--------------------------------|
|-0-----------0--------------------|-0--------------------------------|
|----------------------------------|-2--------------------------------|
|----------------------------------|-3--------------------------------|

Manche sagen es wär einfach, ich sage es ist schwer, denn du,
ja du bist Audrey Hepburn und ich Balu, der Bär.

Immer Pläneschmiedend dastehend so schön und stumm, und ich,
ich fang an zu tanzen, werf erst mal alles um.


C     G    D
          Und gesucht und gefunden
C   G   D
           In der Einsicht verbunden
G/H                 C
Du gibst was du brauchst
                   D
Ich glaub’ was ich seh’
            C             D
Endlich mal etwas das ich fast verstehe


G                            G/F#
Frieden ist wenn alle gleich sind
e
Sag an was wir hier haben
                  D
Das Leben das wir Leben
                       C
Geschützt im Schützengraben
               D
Gesucht und gefunden
                    C
Du vergisst was du weißt
D
In dem Gefühl wir wär’n eins

--

G - G/F# - e - D

                        C     D
Und du vergisst wie du heißt

Bridge (2x): G – C – D/F# - e-D

Lyrics change, but sort of playing and chords are similar. Have fun!
Tap to rate this tab
 
# A B C D E F G H I J K L M N O P Q R S T U V W X Y Z