Song name
# A B C D E F G H I J K L M N O P Q R S T U V W X Y Z

Kevin M Thomas - Triumph tab

ok ive updated triumph and its much more precice :) so enjoy

Intro (tremolo pick)
|-----------------------------------------------------|
|-----------------------------------------------------|
|-----------------------------------------------------|
|---666444333-----------------------------------------|
|-------------1---------------------------------------|
|-------------1(let it ring)--------------------------|


|--------------------|-------------------------|
|--------------------|-------------------------|
|--------------------|------1st time-----------|
|--------------------|-------------------------|
|-1-4-3-1-6-4-3-4-x3-|---4444777711114444------|
|-1-4-3-1-6-4-3-4----|-------------------------|

|------------------------------------|
|------------------------------------|
|--------2nd time--------------------|
|----------67-----------67--67-------|
|-44447777----444477777--------------|
|------------------------------------|

|----------------------------------------------------|
|----------------------------------------------------|
|----------------------------------------------------|
|----------------------------------------------------|
|--004-3-1-0-----------------------------------------|
|--004-3-1-0-----------------------------------------|

breakdown bit intro
|-------------------------------------------------------|
|-------------------------------------------------------|
|-------------------------------------------------------|
|-------------------------------------------------------|
|-0---0-0-0--0-0-0--0-0-0-0---0-0-0-0-0--0-0-0--0-0-0-0-| x2
|-0---0-0-0--0-0-0--0-0-0-0---0-0-0-0-0--0-0-0--0-0-0-0-|

breakdown bit
"My thumbs are in your eyes and they keep fucking pushing"
|---------------------------------------------------------------------|
|---------------------------------------------------------------------|
|---------------------------------------------------------------------|
|---------------------------------------------------------------------| x2
|-0-0-0-0-0--0-0-0--0-0-0-0-------------------------------------------|
|-0-0-0-0-0--0-0-0--0-0-0-0-------------------------------------------|


|---------------------------------------------------------------------|
|---------------------------------------------------------------------|
|---------------------------------------------------------------------|
|---------------------------------------------------------------------| x2
|-0-0-0-0-0--0-0-0--0-0-1-4~---0-0-0-0-0--0-7-4~-6*-------------------|
|-0-0-0-0-0--0-0-0--0-0-1-4~---0-0-0-0-0--0-7-4~----------------------|


play first bit of intro again


"there's a leach on my neck"
|----------------------------------------------------------------------------|
|----------------------------------------------------------------------------|
|----------------------------------------------------------------------------|
|----------------------------------------------------------------------------|
|--------------------------------------------------------4h7p4-3h6p3-1h4p1-1-|
|--111144443333111166664444333344444-x3-1111444433331111-------------------1-|



"well tonight I set your bed aflame, I live to watch you burn"
|--------------------------------------------------------------------------|
|--------------------------------------------------------------------------|
|--------------------------------------------------------------------------|
|--------------------------------------------------------------------------|
|--0000000-4-0-64-444444477777777-00000000-4-0-64-777777771010101013131313-|
|--0000000-4-0-64-444444477777777-00000000-4-0-64-777777771010101013131313-|
    


"I live to watch you burn"
|-------------------------------------------------------------|
|-------------------------------------------------------------|
|-------------------------------------------------------------|
|-------------------------------------4h7p4-3h6p3-1h4p1-0h3p0-|
|-11-44-33-11-66-44-33-4*-11-44-33-11-------------------------|
|-11-44-33-11-66-44-33----11-44-33-11-------------------------|




|----------------------------------------------------|
|----------------------------------------------------|
|----------------------------------------------------|
|--------------8------10-----------------------------|
|-11-44-33-11----0000--------------------------------|
|-11-44-33-11----0000--------------------------------|



|---------------------------------------------------|
|----------------------------------------------------|
|----------------------------------------------------|
|-11114444333311116666444433334444-------------------|x3
|----------------------------------------------------|
|----------------------------------------------------|


|------------------|----------|-------------|
|------------------|----------|-------------|
|------------------|-1st time-|--2nd time---|
|-1111444433331111-|----------|-------------|
|------------------|-6--3-----|--6--3--0----|
|------------------|-6--3-----|--6--3--0----|



"From the ground I can touch the sky"
|------------------------------------------|
|------------------------------------------|
|------------------------------------------|
|------------------------------------------|x1 (call and response)
|-000000000---0---00000--------------------|   guitar 1 plays then guitar 2
|-000000000---0---00000--------------------|



"I hope u get fucked dead"  
|------------------------------------------|
|------------------------------------------|
|------------------------------------------|
|------------------------------------------|x4  Both guitars
|-000000000---0---00000--------------------|
|-000000000---0---00000--------------------|


"This Is Hell, your severed body's left to dwell"
|----------------------------------------------------|
|----------------------------------------------------|
|----------------------------------------------------|
|----------------------------------------------------|
|--000----000--000---000-000-000----000--------------|
|--000----000--000---000-000-000----000--------------|



"I fucking triumph, Suck on that"
|------------------------------------------|  4th time let it ring out
|------------------------------------------|
|------------------------------------------|
|------------------------------------------|x4 
|-000000000---0---00000--------------------|
|-000000000---0---00000--------------------|
Tap to rate this tab
 
# A B C D E F G H I J K L M N O P Q R S T U V W X Y Z