Song name
# A B C D E F G H I J K L M N O P Q R S T U V W X Y Z

Khoury Mueller - House Of Rising Sun tab

Hi
I have this tap not 100% right, but i have make this tap.

This Tap play with (blues sound)
|----------------------------------------|
|---------------------------10-8-10-10-8-|
|--------4-5-7s9-7s5---------------------|
|---5-7--------------7-5-7---------------|
|----------------------------------------|
|----------------------------------------|

|---------------------------------------|
|----------10-8-10----------------------|
|---9-7-9--------------5-7s9-7s5--------|
|-------------------7------------7-5-7--|
|---------------------------------------|
|---------------------------------------|

|------------------------8p10-----------|
|-------------------8-10------10-8-10-8-|
|-------5-4-----7-9---------------------|
|---5-7-----2s7-------------------------|
|---------------------------------------|
|---------------------------------------|

|---------------------------------------|
|---------------------------------------|
|---9-7s5------------5-4----------------|
|---------7-5-7-5-7------2s7------------|
|---------------------------------------|
|---------------------------------------|
This Tap play with (E-guitar)
|----------------------------------------|
|---------------------------10-8-10-10-8-|
|--------4-5-7s9-7s5---------------------|
|---5-7--------------7-5-7---------------|
|----------------------------------------|
|----------------------------------------|

|---------------------------------------|
|----------10-8-10----------------------|
|---9-7-9--------------5-7s9-7s5--------|
|-------------------7------------7-5-7--|
|---------------------------------------|
|---------------------------------------|

|------------------------8p10-----------|
|-------------------8-10------10-8-10-8-|
|-------5-4-----7-9---------------------|
|---5-7-----2s7-------------------------|
|---------------------------------------|
|---------------------------------------|

|---------------------------------------|
|---------------------------------------|
|---9-7s5------------5-4----------------|
|---------7-5-7-5-7------2s7------------|
|---------------------------------------|
|---------------------------------------|
Tap to rate this tab
 
# A B C D E F G H I J K L M N O P Q R S T U V W X Y Z