Song name
# A B C D E F G H I J K L M N O P Q R S T U V W X Y Z

Kid Cudi - Pursuit Of Happiness tab

Kid Cudiís Pursuit of Happiness (Produced by RATATAT) off of Man on the Moon: The End of Day.

Bass line (repeat a whole bunch)
e-------------------------------|
B-------------------------------|
G-------------------------------|
D-------------------------------|
A--3----------------------------|
E-----5--0--0-------------------|

Other base line part
e-------------------------------|
B-------------------------------|
G-------------------------------|
D-----3--2----------------------|
A---3---------------------------|
E-------------------------------|


Guitar part (repeated a whole bunch)
e-------------------------------|
B--13-10------------------------|
G-------9-9---------------------|
D-------------------------------|
A-------------------------------|
E-------------------------------|

Other guitar part
e-------------------------------|
B-------------------------------|
G-------10--9-------------------|
D----10-------------------------|
A-------------------------------|
E-------------------------------|


Guitar solo
(repeat this first part twice, let the 9 and 12 on the G string ring a while)
e-------------------------------|
B-13-12-10-13-12----------------|
G-----------------9s---12-------|
D-------------------------------|
A-------------------------------|
E-------------------------------|

e-------------------------------------------------|
B-------------------------------------------------|
G-----9-----10----12---12-10-9--------------------|
D--10---12-----14----------------10-12-14-12------|
A---------------------------------------------12--|
E-------------------------------------------------|

The whole solo piece is played twice, but on the second/last time the last note is 13 on 
B string, not 12 on the A string.
Tap to rate this tab
# A B C D E F G H I J K L M N O P Q R S T U V W X Y Z