Song name
# A B C D E F G H I J K L M N O P Q R S T U V W X Y Z

Kid Cudi - Pursuit Of Happiness tab

-------------------------------------------------------------------------------
			     PURSUIT OF HAPPINESS - Kid Cudi
-------------------------------------------------------------------------------
Tabbed by: Karsten
Email: karstenxt@gmail.com

Tuning: Standard

Intro:
C Am Em x4
C F Am x2

Verse:
C Am Em x2
C F Am x2
x2

Chorus:
C Am Em x2
C F Am x2
x2

Order:
INTRO
VERSE
CHORUS
VERSE
CHORUS
CHORUS
SOLO
CHORUS
CHORUS
OUTRO (same chords as verse and chorus, just no singing)


Solo:
Guitar 1 2:54
e|---------------------------------------------------------------------------|
B|-13-12-10-13-12-------13-12-10-13-12---------------------------------------|
G|----------------9/12-----------------9/12----------------------------------|
D|---------------------------------------------------------------------------|
A|---------------------------------------------------------------------------|
E|---------------------------------------------------------------------------|

e|---------------------------------------------------------------------------|
B|---------------------------------------------------------------------------|
G|----9-----10------14-12-10-9-----------------------------------------------|
D|-10----12-----14--------------10-12-14-12----------------------------------|
A|------------------------------------------12-------------------------------|
E|---------------------------------------------------------------------------|
Guitar 2 (Harmony) 3:11
e|-12-10-8-12---15--12-10-8-12-10---15---------------------------------------|
B|------------8-------------------8------------------------------------------|
G|---------------------------------------------------------------------------|
D|---------------------------------------------------------------------------|
A|---------------------------------------------------------------------------|
E|---------------------------------------------------------------------------|

e|---------------------------------------------------------------------------|
B|---8----10----13-12-10-8-----------------13--------------------------------|
G|-9---10----12----------------9-10-12-10------------------------------------|
D|--------------------------10-----------------------------------------------|
A|---------------------------------------------------------------------------|
E|---------------------------------------------------------------------------|

Lyrics:

VERSE 1:
Crush a bit, little bit, roll it up, take a hit
Feelin lit feelin light, 2 am summer night.
I don't care, hand on the wheel, drivin drunk, I'm doin my thang
Rollin the Midwest side and out livin my life getting out dreams
People told me slow my roll I'm screaming out fuck that
Imma do just what I want lookin ahead no turnin back
if I fall if I die know I lived it till the fullest
if I fall if I die know I lived and missed some bullets

CHORUS
I'm on the pursuit of happiness and I know everything that shine ain't always gonna be gold
I'll be fine once I get it, I'll be good. x2

VERSE 2:
Tell me what you know about dreamin dreamin
you don't really know about nothin nothin
tell me what you know about them night terrors every night
5 am, cold sweats wakin up to the skies
tell me what you know about dreams, dreams
tell me what you know about night terrors, nothin
you don't really care about the trials of tomorrow
rather lay awake in a bed full of sorrow

CHORUS:
I'm on the pursuit of happiness and I know everything that shines ain't always gonna be gold
I'll be fine once I get it, I'll be good



************************************

| /   slide up
| \   slide down
| h   hammer-on
| p   pull-off
| ~   vibrato
| +   harmonic
| x   Mute note
| b   Bend
| pb  Pre-bend
| br  Bend release
| pbr Pre-bend release
| brb Bend release bend

************************************
Tap to rate this tab
 
# A B C D E F G H I J K L M N O P Q R S T U V W X Y Z