Song name
# A B C D E F G H I J K L M N O P Q R S T U V W X Y Z

Kid Jerusalem - Intro tab

-------------------------------------------------------------------------------
			     Intro - Kid Jerusalem
-------------------------------------------------------------------------------
Tabbed by:Anthony
E-mail: frenchfry16@gmail.com

Tuning:EADGBe

CAPO on 2nd FRET
(tab numbers are according to the capo)

(GUITAR 1)
e|----------------------------------------------------------------------------|
B|--------------------------------------------3-------------------------------|
G|-------4------------4-----------4--------------4----------------------------|
D|---------5------------5-----------5-----------------------------------------|
A|---------------3------------2-----------3-----------------------------------|
E|--0-------------------------------------------------------------------------|


(GUITAR 2)
e|---------------------------------------------------------------------------|
B|--10-12-10-12-15-15-15-12-10-12-12-10-8--7--5~-----------------------------|
G|---------------------------------------------------------------------------|
D|---------------------------------------------------------------------------|
A|---------------------------------------------------------------------------|
E|---------------------------------------------------------------------------|

NO CAPO

(GUITAR 1)
e|---------------------------------------------------------------------------|
B|-------------------------------------5-------------------------------------|
G|------6---------6----------6-----------6-----------------------------------|
D|--------4---------4----------4---------------------------------------------|
A|-------------5--------4----------4-----------------------------------------|
E|--2------------------------------------------------------------------------|

(GUITAR 2)
e|-----------------------------------------------------------------------------|
B|--12-14-12-14-17-17-17-14-12-14-14-12-10--9--7~------------------------------|
G|-----------------------------------------------------------------------------|
D|-----------------------------------------------------------------------------|
A|-----------------------------------------------------------------------------|
E|-----------------------------------------------------------------------------|
Tap to rate this tab
# A B C D E F G H I J K L M N O P Q R S T U V W X Y Z