Song name
# A B C D E F G H I J K L M N O P Q R S T U V W X Y Z

Kid Rock - So Hott tab

-------------------------------------------------------------------------------
			     SO HOTT - Kid Rock
-------------------------------------------------------------------------------
Tabbed by: Isaias Garcia (TexasFury)

Tuning: Drop D


Rhythm

     W                   W                   W                   W                 
E||-------------------|-------------------|-------------------|-------------------|
B||-------------------|-------------------|-------------------|-------------------|
G||-------------------|-------------------|-------------------|-------------------|
D||-------------------|-------------------|-------------------|-------------------|
A||-------------------|-------------------|-------------------|-------------------|
D||-------------------|-------------------|-------------------|-------------------|


  Q    E  E  E    E  E  E      E  E  E  E  E  E  E  E     Q    E  E  E    E  E  E    
----------------------------|--------------------------|----------------------------|
----------------------------|--------------------------|----------------------------|
----------------------------|--------------------------|----------------------------|
----------------------------|--------------------------|----------------------------|
--0----3--0--5br--L--0--3~--|--L--0-----0-----0--3--0--|--0----3--0--5br--L--0--3~--|
--0----3--0--5br--L--0--3~--|--L--0-----0-----0--3--0--|--0----3--0--5br--L--0--3~--|


             NH   NH   NH   NH   NH                                                          
  E  E  E    E    E    E    E    E     Q    E  E  E    E  E  E      E  E  E  E  E  E  E  E   
------------------------------------|----------------------------|--------------------------|
------------------------------------|----------------------------|--------------------------|
------------------------------------|----------------------------|--------------------------|
------------------------------------|----------------------------|--------------------------|
--L--0------------------------------|--0----3--0--5br--L--0--3~--|--L--0-----0-----0--3--0--|
--L--0-----<>9--<>9--<>9--<>9--<>9--|--0----3--0--5br--L--0--3~--|--L--0-----0-----0--3--0--|


                                          NH   NH   NH   NH   NH                               
  Q    E  E  E    E  E  E      E  E  E    E    E    E    E    E     Q    E  E  E    E  E  E    
----------------------------|------------------------------------|----------------------------|
----------------------------|------------------------------------|----------------------------|
----------------------------|------------------------------------|----------------------------|
----------------------------|------------------------------------|----------------------------|
--0----3--0--5br--L--0--3~--|--L--0------------------------------|--0----3--0--5br--L--0--3~--|
--0----3--0--5br--L--0--3~--|--L--0-----<>9--<>9--<>9--<>9--<>9--|--0----3--0--5br--L--0--3~--|


                                                                     NH   NH   NH   NH   NH  
  E  E  E  E  E  E  E  E     Q    E  E  E    E  E  E      E  E  E    E    E    E    E    E   
--------------------------|----------------------------|------------------------------------|
--------------------------|----------------------------|------------------------------------|
--------------------------|----------------------------|------------------------------------|
--------------------------|----------------------------|------------------------------------|
--L--0-----0-----0--3--0--|--0----3--0--5br--L--0--3~--|--L--0------------------------------|
--L--0-----0-----0--3--0--|--0----3--0--5br--L--0--3~--|--L--0-----<>9--<>9--<>9--<>9--<>9--|


  Q    E  E  E    E  E  E      E  E  E  E  E  E  E  E     Q    E  E  E    E  E  E    
----------------------------|--------------------------|----------------------------|
----------------------------|--------------------------|----------------------------|
----------------------------|--------------------------|----------------------------|
----------------------------|--------------------------|----------------------------|
--0----3--0--5br--L--0--3~--|--L--0-----0-----0--3--0--|--0----3--0--5br--L--0--3~--|
--0----3--0--5br--L--0--3~--|--L--0-----0-----0--3--0--|--0----3--0--5br--L--0--3~--|


             NH   NH   NH   NH   NH                                                            
  E  E  E    E    E    E    E    E     Q    E  E  E    E  E   E     E  E  E  E  E    E  Q      
------------------------------------|----------------------------|----------------------------|
------------------------------------|----------------------------|----------------------------|
------------------------------------|----------------------------|----------------------------|
------------------------------------|----------------------------|----------------------------|
--L--0------------------------------|--0----3--0--5br--L--3~--0--|--L--0--3--0--5br--L--3~----|
--L--0-----<>9--<>9--<>9--<>9--<>9--|--0----3--0--5br--L--3~--0--|--L--0--3--0--5br--L--3~----|


  Q    E  E  E    E  E   E     E  E  E  E  E    E  Q        Q    E  E  E    E  E   E   
----------------------------|----------------------------|----------------------------|
----------------------------|----------------------------|----------------------------|
----------------------------|----------------------------|----------------------------|
----------------------------|----------------------------|----------------------------|
--0----3--0--5br--L--3~--0--|--L--0--3--0--5br--L--3~----|--0----3--0--5br--L--3~--0--|
--0----3--0--5br--L--3~--0--|--L--0--3--0--5br--L--3~----|--0----3--0--5br--L--3~--0--|


                                                     NH   NH   NH   NH   NH   NH       
  E  E  E  E  E    E  Q        W                     E    E    E    E    E    E  Q     
----------------------------|-------------------|-------------------------------------|
----------------------------|-------------------|-------------------------------------|
----------------------------|-------------------|-------------------------------------|
----------------------------|-------------------|-------------------------------------|
--L--0--3--0--5br--L--3~----|--0----------------|-------------------------------------|
--L--0--3--0--5br--L--3~----|--0----------------|--<>9--<>9--<>9--<>9--<>9--<>9-------|


  Q    Q    E  E  E  E     E  E  E  E  E  E  E  E     Q    Q    E  E  E  E   
------------------------|--------------------------|------------------------|
-------3----L-----------|--------------------------|-------3----L-----------|
-------2----L-----------|-----------5--L-----------|-------2----L-----------|
-------0----L-----------|-----------5--L-----------|-------0----L-----------|
--0------------0--2--3--|--L--3--3--3--L--5-----3--|--0------------0--2--3--|
--0------------0--2--3--|--L--3--3--------5-----3--|--0------------0--2--3--|


  E  E  E  E  E  E  E  E     Q    Q    E  E  E  E     E  E  E  E  E  E  E  E   
--------------------------|------------------------|--------------------------|
--------------------------|-------3----L-----------|--------------------------|
-----------5--L-----------|-------2----L-----------|-----------5--L-----------|
-----------5--L-----------|-------0----L-----------|-----------5--L-----------|
--L--3--3--3--L--5-----3--|--0------------0--2--3--|--L--3--3--3--L--5-----3--|
--L--3--3--------5-----3--|--0------------0--2--3--|--L--3--3--------5-----3--|


  Q    Q    E  E  E  E     E  E  E  E  E  E  E  E     W                   W                 
------------------------|--------------------------|-------------------|-------------------|
-------3----L-----------|--------------------------|-------------------|-------------------|
-------2----L-----------|-----------5--L-----------|-------------------|-------------------|
-------0----L-----------|-----------5--L-----------|-------------------|-------------------|
--0------------0--2--3--|--L--3--3--3--L--5-----3--|--0----------------|--L----------------|
--0------------0--2--3--|--L--3--3--------5-----3--|--0----------------|--L----------------|


                                          NH   NH   NH   NH   NH                      
  Q    E  E  E    E  E  E      E  E  E    E    E    E    E    E     W                 
----------------------------|------------------------------------|-------------------|
----------------------------|------------------------------------|-------------------|
----------------------------|------------------------------------|-------------------|
----------------------------|------------------------------------|-------------------|
--0----3--0--5br--L--0--3~--|--L--0------------------------------|-------------------|
--0----3--0--5br--L--0--3~--|--L--0-----<>9--<>9--<>9--<>9--<>9--|-------------------|


  W                   Q    E  E  E    E  E  E      E  E  Q    H           Q    Q    E  E  E  E   
-------------------|----------------------------|----------------------|------------------------|
-------------------|----------------------------|----------------------|-------3----L-----------|
-------------------|----------------------------|----------------------|-------2----L-----------|
-------------------|----------------------------|----------------------|-------0----L-----------|
-------------------|--0----3--0--5br--L--0--3~--|--L--0----------------|--0------------0--2--3--|
-------------------|--0----3--0--5br--L--0--3~--|--L--0----------------|--0------------0--2--3--|


  E  E  E  E  E  E  E  E     Q    Q    E  E  E  E     E  E  E  E  E  E  E  E   
--------------------------|------------------------|--------------------------|
--------------------------|-------3----L-----------|--------------------------|
-----------5--L-----------|-------2----L-----------|-----------5--L-----------|
-----3--3--5--L-----------|-------0----L-----------|-----------5--L-----------|
--L--3--3--3--L--5-----3--|--0------------0--2--3--|--L--3--3--3--L--5-----3--|
--L--3--3--------5-----3--|--0------------0--2--3--|--L--3--3--------5-----3--|


  Q    Q    E  E  E  E     E  E  E  E  E  E  Q       W                   W                 
------------------------|-------------------------|-------------------|-------------------|
-------3----L-----------|-------------------------|-------------------|-------------------|
-------2----L-----------|-----------5--L----------|-------------------|-------------------|
-------0----L-----------|-----------5--L----------|-------------------|-------------------|
--0------------0--2--3--|--L--3--3--3--L--5-------|-------------------|-------------------|
--0------------0--2--3--|--L--3--3--------5-------|-------------------|-------------------|


  Q    E  E  E    E  E  E      E  E  E  E  E  E  E  E     Q    E  E  E    E  E  E    
----------------------------|--------------------------|----------------------------|
----------------------------|--------------------------|----------------------------|
----------------------------|--------------------------|----------------------------|
----------------------------|--------------------------|----------------------------|
--0----3--0--5br--L--0--3~--|--L--0-----0-----0--3--0--|--0----3--0--5br--L--0--3~--|
--0----3--0--5br--L--0--3~--|--L--0-----0-----0--3--0--|--0----3--0--5br--L--0--3~--|


             NH   NH   NH   NH   NH                                                          
  E  E  E    E    E    E    E    E     Q    E  E  E    E  E  E      E  E  E  E  E  E  E  E   
------------------------------------|----------------------------|--------------------------|
------------------------------------|----------------------------|--------------------------|
------------------------------------|----------------------------|--------------------------|
------------------------------------|----------------------------|--------------------------|
--L--0------------------------------|--0----3--0--5br--L--0--3~--|--L--0-----0-----0--3--0--|
--L--0-----<>9--<>9--<>9--<>9--<>9--|--0----3--0--5br--L--0--3~--|--L--0-----0-----0--3--0--|


  Q    E  E  E    E  E  E      E  E  Q    H           W                   W                 
----------------------------|----------------------|-------------------|-------------------|
----------------------------|----------------------|-------------------|-------------------|
----------------------------|----------------------|-------------------|-------------------|
----------------------------|----------------------|-------------------|-------------------|
--0----3--0--5br--L--0--3~--|--L--0----------------|-------------------|-------------------|
--0----3--0--5br--L--0--3~--|--L--0----------------|-------------------|-------------------|


  Q    E  E  E    E  E  E      E  E  Q    H           W                   W                 
----------------------------|----------------------|-------------------|-------------------|
----------------------------|----------------------|-------------------|-------------------|
----------------------------|----------------------|-------------------|-------------------|
----------------------------|----------------------|-------------------|-------------------|
--0----3--0--5br--L--0--3~--|--L--0----------------|-------------------|-------------------|
--0----3--0--5br--L--0--3~--|--L--0----------------|-------------------|-------------------|


  Q    E  E  E    E  E  E      E  E  Q    H           Q    Q    E  E  E  E   
----------------------------|----------------------|------------------------|
----------------------------|----------------------|-------3----L-----------|
----------------------------|----------------------|-------2----L-----------|
----------------------------|----------------------|-------0----L-----------|
--0----3--0--5br--L--0--3~--|--L--0----------------|--0------------0--2--3--|
--0----3--0--5br--L--0--3~--|--L--0----------------|--0------------0--2--3--|


  E  E  E  E  E  E  E  E     Q    Q    E  E  E  E     E  E  E  E  E  E  E  E   
--------------------------|------------------------|--------------------------|
--------------------------|-------3----L-----------|--------------------------|
-----------5--L-----------|-------2----L-----------|-----------5--L-----------|
-----------5--L-----------|-------0----L-----------|-----------5--L-----------|
--L--3--3--3--L--5-----3--|--0------------0--2--3--|--L--3--3--3--L--5-----3--|
--L--3--3--------5-----3--|--0------------0--2--3--|--L--3--3--------5-----3--|


  Q    Q    E  E  E  E     E  E  E  E  E  E  E  E     W                   W                 
------------------------|--------------------------|-------------------|-------------------|
-------3----L-----------|--------------------------|-------------------|-------------------|
-------2----L-----------|-----------5--L-----------|-------------------|-------------------|
-------0----L-----------|-----------5--L-----------|-------------------|-------------------|
--0------------0--2--3--|--L--3--3--3--L--5-----3--|-------------------|-------------------|
--0------------0--2--3--|--L--3--3--------5-----3--|-------------------|-------------------|


  Q    Q    E  E  E  E     E  E  E  E  E  E  E  E     Q    Q    E  E  E  E   
------------------------|--------------------------|------------------------|
-------3----L-----------|--------------------------|-------3----L-----------|
-------2----L-----------|-----------5--L-----------|-------2----L-----------|
-------0----L-----------|-----------5--L-----------|-------0----L-----------|
--0------------0--2--3--|--L--3--3--3--L--5--L--3--|--0------------0--2--3--|
--0------------0--2--3--|--L--3--3--------5--L--3--|--0------------0--2--3--|


  E  E  E  E  E  E  E  E     Q    Q    E  E  E  E     E  E  E  E  E  E  E  E   
--------------------------|------------------------|--------------------------|
--------------------------|-------3----L-----------|--------------------------|
-----------5--L-----------|-------2----L-----------|-----------5--L-----------|
-----------5--L-----------|-------0----L-----------|-----------5--L-----------|
--L--3--3--3--L--5--L--3--|--0------------0--2--3--|--L--3--3--3--L--5--L--3--|
--L--3--3--------5--L--3--|--0------------0--2--3--|--L--3--3--------5--L--3--|


  Q    Q    E  E  E  E     E  E  E  E  E  E  E  E     Q    Q    E  E  E  E   
------------------------|--------------------------|------------------------|
-------3----L-----------|--------------------------|-------3----L-----------|
-------2----L-----------|-----------5--L-----------|-------2----L-----------|
-------0----L-----------|-----------5--L-----------|-------0----L-----------|
--0------------0--2--3--|--L--3-----3--L--5-----3--|--0------------0--2--3--|
--0------------0--2--3--|--L--3-----------5-----3--|--0------------0--2--3--|


  E  E  E  E  E  E  E  E     Q    Q    E  E  E  E     E  E  H.              Q    Q    E  E  E  E   
--------------------------|------------------------|---------------------|------------------------|
--------------------------|-------3----L-----------|---------------------|-------3----L-----------|
-----------5--L-----------|-------2----L-----------|--------5------------|-------2----L-----------|
-----------5--L-----------|-------0----L-----------|--------5------------|-------0----L-----------|
--L--3--3--3--L--5--L--3--|--0------------0--2--3--|--L--x--3------------|--0------------0--2--3--|
--L--3--3--------5--L--3--|--0------------0--2--3--|--L--x---------------|--0------------0--2--3--|


  E  E  E  E  E  E  E  E     W                   W                   Q    Q    E  E  E  E   
--------------------------|-------------------|-------------------|------------------------|
--------------------------|-------------------|-------------------|-------3----L-----------|
-----------5--L-----------|-------------------|-------------------|-------2----L-----------|
-----------5--L-----------|-------------------|-------------------|-------0----L-----------|
--L--3--3--3--L--5-----3--|-------------------|-------------------|--0------------0--2--3--|
--L--3--3--------5-----3--|-------------------|-------------------|--0------------0--2--3--|


  E  E   E  E  E   E  Q        Q    Q    E  E  E  E     E  E   E  E  E  E  Q      
----------------------------|------------------------|---------------------------|
-------------------3--------|-------3----L-----------|---------------------------|
-----5b--L--2--5b-----5b----|-------2----L-----------|-----5b--L--2--------------|
----------------------------|-------0----L-----------|---------------5--3--5~----|
--L-------------------------|--0------------0--2--3--|--L------------------------|
--L-------------------------|--0------------0--2--3--|--L------------------------|


  Q    Q    E  E  E  E     E  E   E  E  E   E  Q        Q    Q    E  E  E  E   
------------------------|----------------------------|------------------------|
-------3----L-----------|-------------------3--------|-------3----L-----------|
-------2----L-----------|-----5b--L--2--5b-----5b----|-------2----L-----------|
-------0----L-----------|----------------------------|-------0----L-----------|
--0------------0--2--3--|--L-------------------------|--0------------0--2--3--|
--0------------0--2--3--|--L-------------------------|--0------------0--2--3--|


  E  E  E  E  E  E  E  E     Q    Q    E  E  E  E     E  E  E  E  E  E  E  E   
--------------------------|------------------------|--------------------------|
--------------------------|-------3----L-----------|--------------------------|
--------------------------|-------2----L-----------|--------------------------|
--------------------------|-------0----L-----------|--------------------------|
--L--1--L--1--L--1--L--1--|--0---------------------|-----------------5--L-----|
--L--1--L--1--L--1--L--1--|--0------------0--2--3--|--L--5--7--5--L--5--L--3--|


  Q    Q    E  E  E  E     E  E  E  E  E  E  E  E     Q    Q    E  E  E  E   
------------------------|--------------------------|------------------------|
-------3----L-----------|--------------------------|-------3----L-----------|
-------2----L-----------|--------------------------|-------2----L-----------|
-------0----L-----------|--------------------------|-------0----L-----------|
--0---------------------|-----------------5--L-----|--0---------------------|
--0------------0--2--3--|--L--5--7--5--L--5--L--3--|--0------------0--2--3--|


  E  E  E  E  E  E  E  E     Q    Q    E  E  E  E     E  E  E  E  E  E  E  E     W                 
--------------------------|------------------------|--------------------------|-------------------|
--------------------------|-------3----L-----------|--------------------------|--3----------------|
--------------------------|-------2----L-----------|--------------------------|--2----------------|
--------------------------|-------0----L-----------|--------------------------|--0----------------|
-----------------5--L-----|--0---------------------|-----------------5--L-----|--0----------------|
--L--5--7--5--L--5--L--3--|--0------------0--2--3--|--L--5--7--5--L--5--L--3--|--0----------------|


  W                   W                   W                  
-------------------|-------------------|-------------------||
--L----------------|--L----------------|--L----------------||
--L----------------|--L----------------|--L----------------||
--L----------------|--L----------------|--L----------------||
--L----------------|--L----------------|--L----------------||
--L----------------|--L----------------|--L----------------||



Lead



     W                   W                   W                   W                 
D||-------------------|-------------------|-------------------|-------------------|
A||-------------------|-------------------|-------------------|-------------------|
F||-------------------|-------------------|-------------------|-------------------|
C||-------------------|-------------------|-------------------|-------------------|
G||-------------------|-------------------|-------------------|-------------------|
D||-------------------|-------------------|-------------------|-------------------|


  W                   W                   W                   W                   W                 
-------------------|-------------------|-------------------|-------------------|-------------------|
-------------------|-------------------|-------------------|-------------------|-------------------|
-------------------|-------------------|-------------------|-------------------|-------------------|
-------------------|-------------------|-------------------|-------------------|-------------------|
-------------------|-------------------|-------------------|-------------------|-------------------|
-------------------|-------------------|-------------------|-------------------|-------------------|


  W                   W                   W                   W                   W                 
-------------------|-------------------|-------------------|-------------------|-------------------|
-------------------|-------------------|-------------------|-------------------|-------------------|
-------------------|-------------------|-------------------|-------------------|-------------------|
-------------------|-------------------|-------------------|-------------------|-------------------|
-------------------|-------------------|-------------------|-------------------|-------------------|
-------------------|-------------------|-------------------|-------------------|-------------------|


  W                   W                   W                   W                   W                 
-------------------|-------------------|-------------------|-------------------|-------------------|
-------------------|-------------------|-------------------|-------------------|-------------------|
-------------------|-------------------|-------------------|-------------------|-------------------|
-------------------|-------------------|-------------------|-------------------|-------------------|
-------------------|-------------------|-------------------|-------------------|-------------------|
-------------------|-------------------|-------------------|-------------------|-------------------|


  W                   W                   W                   W                   W                 
-------------------|-------------------|-------------------|-------------------|-------------------|
-------------------|-------------------|-------------------|-------------------|-------------------|
-------------------|-------------------|-------------------|-------------------|-------------------|
-------------------|-------------------|-------------------|-------------------|-------------------|
-------------------|-------------------|-------------------|-------------------|-------------------|
-------------------|-------------------|-------------------|-------------------|-------------------|


   Q      E   E   E     E   E   E       E   E   E   E   E     E   Q     
------------------------------------|----------------------------------|
---------12--14--14b----L--12-------|----------12--14--14b----L--12----|
---------12--14--14br---L--12-------|----------12--14--14br---L--12----|
--14~--------------------------14~--|---L--14--------------------------|
------------------------------------|----------------------------------|
------------------------------------|----------------------------------|


   Q      E   E   E     E   E   E       W                   W                   W                 
------------------------------------|--------------------|-------------------|-------------------|
---------12--14--14b----L--12--14b--|---L----------------|-------------------|-------------------|
---------12--14--14br---L--12--14b--|---L----------------|-------------------|-------------------|
--14~-------------------------------|--------------------|-------------------|-------------------|
------------------------------------|--------------------|-------------------|-------------------|
------------------------------------|--------------------|-------------------|-------------------|


  W                   W                   W                   W                   W                 
-------------------|-------------------|-------------------|-------------------|-------------------|
-------------------|-------------------|-------------------|-------------------|-------------------|
-------------------|-------------------|-------------------|-------------------|-------------------|
-------------------|-------------------|-------------------|-------------------|-------------------|
-------------------|-------------------|-------------------|-------------------|-------------------|
-------------------|-------------------|-------------------|-------------------|-------------------|


  W                   W                   W                   W                   W                 
-------------------|-------------------|-------------------|-------------------|-------------------|
-------------------|-------------------|-------------------|-------------------|-------------------|
-------------------|-------------------|-------------------|-------------------|-------------------|
-------------------|-------------------|-------------------|-------------------|-------------------|
-------------------|-------------------|-------------------|-------------------|-------------------|
-------------------|-------------------|-------------------|-------------------|-------------------|


  W                   W                   W                   W                   W                 
-------------------|-------------------|-------------------|-------------------|-------------------|
-------------------|-------------------|-------------------|-------------------|-------------------|
-------------------|-------------------|-------------------|-------------------|-------------------|
-------------------|-------------------|-------------------|-------------------|-------------------|
-------------------|-------------------|-------------------|-------------------|-------------------|
-------------------|-------------------|-------------------|-------------------|-------------------|


  W                   W                   W                   W                   W                 
-------------------|-------------------|-------------------|-------------------|-------------------|
-------------------|-------------------|-------------------|-------------------|-------------------|
-------------------|-------------------|-------------------|-------------------|-------------------|
-------------------|-------------------|-------------------|-------------------|-------------------|
-------------------|-------------------|-------------------|-------------------|-------------------|
-------------------|-------------------|-------------------|-------------------|-------------------|


  W                   W                   W                   W                   W                 
-------------------|-------------------|-------------------|-------------------|-------------------|
-------------------|-------------------|-------------------|-------------------|-------------------|
-------------------|-------------------|-------------------|-------------------|-------------------|
-------------------|-------------------|-------------------|-------------------|-------------------|
-------------------|-------------------|-------------------|-------------------|-------------------|
-------------------|-------------------|-------------------|-------------------|-------------------|


  W                   W                   W                   W                   W                 
-------------------|-------------------|-------------------|-------------------|-------------------|
-------------------|-------------------|-------------------|-------------------|-------------------|
-------------------|-------------------|-------------------|-------------------|-------------------|
-------------------|-------------------|-------------------|-------------------|-------------------|
-------------------|-------------------|-------------------|-------------------|-------------------|
-------------------|-------------------|-------------------|-------------------|-------------------|


  W                   W                   W                   W                   W                 
-------------------|-------------------|-------------------|-------------------|-------------------|
-------------------|-------------------|-------------------|-------------------|-------------------|
-------------------|-------------------|-------------------|-------------------|-------------------|
-------------------|-------------------|-------------------|-------------------|-------------------|
-------------------|-------------------|-------------------|-------------------|-------------------|
-------------------|-------------------|-------------------|-------------------|-------------------|


  W                   W                   W                   W                   W                 
-------------------|-------------------|-------------------|-------------------|-------------------|
-------------------|-------------------|-------------------|-------------------|-------------------|
-------------------|-------------------|-------------------|-------------------|-------------------|
-------------------|-------------------|-------------------|-------------------|-------------------|
-------------------|-------------------|-------------------|-------------------|-------------------|
-------------------|-------------------|-------------------|-------------------|-------------------|


  W                   W                   W                   W                   W                 
-------------------|-------------------|-------------------|-------------------|-------------------|
-------------------|-------------------|-------------------|-------------------|-------------------|
-------------------|-------------------|-------------------|-------------------|-------------------|
-------------------|-------------------|-------------------|-------------------|-------------------|
-------------------|-------------------|-------------------|-------------------|-------------------|
-------------------|-------------------|-------------------|-------------------|-------------------|


  W                   Q     Q      E   E    E   E       Q     Q      S  S  S    S  Q      
-------------------|-------19------L--19----L--19---|---L-----------12-------------------|
-------------------|-------22b-----L--22b---L--22b--|---L----15b-------15----------------|
-------------------|--------------------------------|---------------------14br--L-12~----|
-------------------|--------------------------------|------------------------------------|
-------------------|--------------------------------|------------------------------------|
-------------------|--0-----------------------------|------------------------------------|


   E     E   S  E   S  E   S  S S  S  S   S     Q     S  S  S  S  S  S  S   S  S  S  S  S  
--------------------------------------------|---------------------------------------------|
--------------------------------------------|---------------------------------------------|
---L\---------------------------------------|--------12-14-12-----------------------------|
------------12-12--12-12--12-12---12-12s-14-|---L-------------14-12-----------------------|
-------/14----------------------------------|-----------------------14-12s-10-12-10----10-|
--------------------------------------------|---------------------------------------12----|


   Q     S  S  E   E    E    E   E       E   E   E   E    E   E    E   S  S  
------------------------------------|---------------------------------------|
------------------------------------|---------------------------------12-15-|
------------------------------------|------------------------14b---L--------|
------------------------------------|-------12--14--12~---L-----------------|
--------------10--12--/14s--12--10--|--/14----------------------------------|
--12----10-12-----------------------|---------------------------------------|


   S   S  S  S   S  S  S  S  S   S  S  S  E    E      E    S  S  Q      S  S  S  S   S   S  S   S  
--------------------------------------------------|-------12-----------12-------------------------|
------12-15-----12-15----12-----------------------|----------12-15b-------15-12-------------------|
--14b-------14b-------14----14b--L-12---------12--|--14b------------------------14b--Lp-12-14p-12-|
--------------------------------------14-14~------|-----------------------------------------------|
--------------------------------------------------|-----------------------------------------------|
--------------------------------------------------|-----------------------------------------------|


  Q    H        E   E      Q     E  E   E    E   E      E     Q     H        E   E    
-----------------------|-----------------------------------|-------------------------|
-----------------------|--------------------15-------------|--------------------22b--|
-------9--------0--12--|---L-----L--0--14b------14pbr--12--|-------12----------------|
-------9--------0--12--|---L-----L--0----------------------|-------12----------------|
-------7-----------10--|---L-----L-------------------------|-------10----------------|
--0--------------------|-----------------------------------|--0----------------------|


   E   E   S    S  E    E   E   Q        Q    H        E   E      Q    E   E   E    E  E   E    
------22------------------------------|-----------------------|---------------------------15b--|
---L------22br--L-20h--22--20---------|-----------------------|--------------------15----------|
-------------------------------21~----|-------9-----------12--|---L-------14---Lb--------------|
--------------------------------------|-------9-----------12--|---L----------------------------|
--------------------------------------|-------7-----------10--|---L----------------------------|
--------------------------------------|--0-------------0------|--------------------------------|


            T    T        T    T           T    T                 W            
   E    E   E    E    E   E    E    E      E    E    E    E   E   E   E   E    
---------------------------------------|--------------------------------------|
---------------------------------------|--------------------------------------|
--12h--14--16s--19p--14--16s--19p--14--|--16s--19p--14p--12--14--12-----------|
---------------------------------------|-----------------------------14--12~--|
---------------------------------------|--------------------------------------|
---------------------------------------|--------------------------------------|


  Q    H        E   E      Q     E  E   E    E   E      E     Q     H         E   E   
-----------------------|-----------------------------------|-------------------------|
-----------------------|--------------------15-------------|---------------------22--|
-------9-----------12--|---L-----L--0--14b------14pbr--12--|-------12----------------|
-------9-----------12--|---L-----L--0----------------------|-------12~---------------|
-------7-----------10--|---L-----L-------------------------|-------10----------------|
--0-------------0------|-----------------------------------|--0---------------0------|


   E    E   S    S  E    E   E   Q        Q    H        E   E      Q     E   E    E   E   E   E     
-------22------------------------------|-----------------------|-------------------------12--15br--|
---Lb------22br--L-20h--22--20---------|-----------------------|---------------------15------------|
--------------------------------21~----|-------9-----------12--|---L-----L--14b---L----------------|
---------------------------------------|-------9-----------12--|---L-----L-------------------------|
---------------------------------------|-------7-----------10--|---L-----L-------------------------|
---------------------------------------|--0-------------0------|-----------------------------------|


   Q     E   E   E   E   Q         E   E   E   E   E   E   E   E     Q    Q    E   E   E   E   
---L----12--15--12--15---------|--12--15--12--15--12--15--12--15--|-------0----L--------------|
------------------------15b----|----------------------------------|-------0----L--17--17--17--|
-------------------------------|----------------------------------|---------------------------|
-------------------------------|----------------------------------|---------------------------|
-------------------------------|----------------------------------|---------------------------|
-------------------------------|----------------------------------|--0------------------------|


   E   E   E   E   E   E   E   E      H        E   E   E   E      E   E   E   E   E   E   E   E   
----------------------------------|---------------------------|----------------------------------|
--17--15--15--15--15----------15--|---------------17--17--17--|--17--15--15--15---L----------15--|
----------------------17--17------|--16-----------------------|----------------------17---L------|
----------------------------------|---------------------------|----------------------------------|
----------------------------------|---------------------------|----------------------------------|
----------------------------------|---------------------------|----------------------------------|


   H        E   E   E   E      E   E   E   E   E   E   E   E      H        E   E   E   E   
---------------------------|----------------------------------|---------------------------|
---------------17--17--17--|--17--15--15--15--15----------15--|---------------17--17--17--|
--16-----------------------|----------------------17--17------|--16-----------------------|
---------------------------|----------------------------------|---------------------------|
---------------------------|----------------------------------|---------------------------|
---------------------------|----------------------------------|---------------------------|


   E   E   E   E   E   E   E   E      W                    W                    W                 
----------------------------------|--------------------|--------------------|--------------------|
--17--15--15--15--15----------15--|--------------------|--------------------|--------------------|
----------------------17--17------|--16----------------|---L----------------|---L----------------|
----------------------------------|--------------------|--------------------|--------------------|
----------------------------------|--------------------|--------------------|--------------------|
----------------------------------|--------------------|--------------------|--------------------|


   W                  
--------------------||
--------------------||
---L----------------||
--------------------||
--------------------||
--------------------||




Duration Legend
---------------
W - whole
H - half
Q - quarter
E - 8th
S - 16th
T - 32nd
X - 64th
. - note dotted
|-n-|  - n-tuplets


Tablature Legend
----------------
L - tied note
x - dead note
g - grace note
(n) - ghost note
> - accentuded note
NH - natural harmonic
AH - artificial harmonic
TH - tapped harmonic
SH - semi harmonic
PH - pitch harmonic
h - hammer on
p - pull off
b - bend
br - bendRelease
pb - preBend
pbr - preBendRelease
brb - bendReleaseBend
\n/ - tremolo bar dip
\n - tremolo bar dive
-/n - tremolo bar Release up
/n\ - tremolo bar inverted dip
/n - tremolo bar return
-\n - tremolo bar Release down
S - shift slide
s - legato slide
/ -  slide into from below or out of upwards
\ -  slide into from above or out of downwards
~ - vibrato
W - wide vibrato
tr - trill
TP - tremolo picking
T - tapping
S - slap
P - pop
< - fade in
^ - brush up
v - brush down
Tap to rate this tab
# A B C D E F G H I J K L M N O P Q R S T U V W X Y Z