Song name
# A B C D E F G H I J K L M N O P Q R S T U V W X Y Z

Kids In Glass Houses - Dance All Night tab

Title: Dance All Night
Artist: Kids In Glass Houses
Album: Smart Casual

Tabbed by Hazel (lezatherock). Email: latetoo00@hotmail.com.

Tuning: Standard

PLEASE LISTEN TO THE SONG FOR STRUMMING PATTERNS.

GUITAR 1.
----------------------------------------------------------------------

INTRO: Chords. Listen for strumming pattern.  
e|---------------|
B|---------------|
G|-4-6-7-6-4-6-7-|
D|-5-7-9-7-5-7-9-|
A|-5-7-9-7-5-7-9-|
E|-3-5-7-5-3-5-7-|

CHORUS RIFF (pre-verse 1): Power chords. Listen for strumming pattern.
e|-----------------------------------------------|
B|-----------------------------------------------|
G|----7----------7----------7----------7---------|
D|-55-7-777-4455-7-777-4455-7-777-4455-7-777-445-|
A|-55-5-777-4455-5-777-4455-5-777-4455-5-777-445-|
E|-33---555-2233---555-2233---555-2233---555-223-|

VERSE 1 - Same riff as intro. Listen for strumming pattern.
e|---------------|
B|---------------|
G|-4-6-7-6-4-6-7-|
D|-5-7-9-7-5-7-9-|
A|-5-7-9-7-5-7-9-|
E|-3-5-7-5-3-5-7-|

The story gooooeeees.... - palm muted.
e|--------------------|
B|--------------------|
G|--------------------|
D|---0--02-024-4-4240-|
A|-44--4--------------|
E|--------------------|
PM ... ... ... . ....

CHORUS: Power chords. Listen for strumming pattern.
e|-----------------------------------------------|
B|-----------------------------------------------|
G|----7----------7----------7----------7---------|
D|-55-7-777-4455-7-777-4455-7-777-4455-7-777-445-|
A|-55-5-777-4455-5-777-4455-5-777-4455-5-777-445-|
E|-33---555-2233---555-2233---555-2233---555-223-|

VERSE 2 - palm muted.
e|--------------------|
B|--------------------|
G|--------------------|
D|---0--02-024-4-4240-|
A|-44--4--------------|
E|--------------------|
PM ... ... ... . ....

The story goooeeees.....- Chords. Listen for strumming pattern.
e|-------|
B|-------|
G|-4-6-7-|
D|-5-7-9-|
A|-5-7-9-|
E|-3-5-7-|

CHORUS: Power chords. Listen for strumming pattern.
e|-----------------------------------------------|
B|-----------------------------------------------|
G|----7----------7----------7----------7---------|
D|-55-7-777-4455-7-777-4455-7-777-4455-7-777-445-|
A|-55-5-777-4455-5-777-4455-5-777-4455-5-777-445-|
E|-33---555-2233---555-2233---555-2233---555-223-|

The story goeeeeeeeeeeees..... - Same chords as intro riff.
e|---------------|
B|---------------|
G|-4-6-7-6-4-6-7-|
D|-5-7-9-7-5-7-9-|
A|-5-7-9-7-5-7-9-|
E|-3-5-7-5-3-5-7-|

CHORUS: Power chords. Listen for strumming pattern.
e|-----------------------------------------------|
B|-----------------------------------------------|
G|----7----------7----------7----------7---------|
D|-55-7-777-4455-7-777-4455-7-777-4455-7-777-445-|
A|-55-5-777-4455-5-777-4455-5-777-4455-5-777-445-|
E|-33---555-2233---555-2233---555-2233---555-223-|

Take a seat... - Intro riff again.
e|---------------|
B|---------------|
G|-4-6-7-6-4-6-7-|
D|-5-7-9-7-5-7-9-|
A|-5-7-9-7-5-7-9-|
E|-3-5-7-5-3-5-7-|

OUTRO: Chorus riff.
e|-----------------------------------------------|
B|-----------------------------------------------|
G|----7----------7----------7----------7---------|
D|-55-7-777-4455-7-777-4455-7-777-4455-7-777-445-|
A|-55-5-777-4455-5-777-4455-5-777-4455-5-777-445-|
E|-33---555-2233---555-2233---555-2233---555-223-|



GUITAR 2.
----------------------------------------------------------------------

INTRO: Chords. Listen for strumming pattern.  
e|---------------|
B|---------------|
G|-4-6-7-6-4-6-7-|
D|-5-7-9-7-5-7-9-|
A|-5-7-9-7-5-7-9-|
E|-3-5-7-5-3-5-7-|

CHORUS RIFF (pre-verse 1): Listen for strumming pattern.
e|-2-2-2-3-3-2--0-0-2--223-2-0-2-2-2-2-3-3-2--0-0-2--223-2-0-2-|
B|-3-3-3-3-3-3--3-3-3--333-3-3-3-3-3-3-3-3-3--3-3-3--333-3-3-3-|
G|-------------------------------------------------------------|
D|-------------------------------------------------------------|
A|-------------------------------------------------------------|
E|-------------------------------------------------------------|

e|-2-2-3-2--2-2-3-2--5-5-2-2-3-2--2-2-3-2--5-5-|
B|-3-3-3-3--3-3-3-3--3-3-3-3-3-3--3-3-3-3--3-3-|
G|---------------------------------------------|
D|---------------------------------------------|
A|---------------------------------------------|
E|---------------------------------------------|

VERSE 1 - Same riff as intro. Listen for strumming pattern.
e|---------------|
B|---------------|
G|-4-6-7-6-4-6-7-|
D|-5-7-9-7-5-7-9-|
A|-5-7-9-7-5-7-9-|
E|-3-5-7-5-3-5-7-|

The story gooooeeees.... - palm muted.
e|---------------------------------------------------------|
B|---------------------------------------------------10-10-|
G|---7-4----9-6----11-7--11-9----7-4----9-6----11-7--------|
D|-5------7------9-------------5------7------9-------------| x2
A|---------------------------------------------------------|
E|---------------------------------------------------------|
PM . . .  . . .  . .  .  .  .  . . .  . . .  . .  .  .  .

CHORUS RIFF: Listen for strumming pattern.
e|-2-2-2-3-3-2--0-0-2--223-2-0-2-2-2-2-3-3-2--0-0-2--223-2-0-2-|
B|-3-3-3-3-3-3--3-3-3--333-3-3-3-3-3-3-3-3-3--3-3-3--333-3-3-3-|
G|-------------------------------------------------------------|
D|-------------------------------------------------------------|
A|-------------------------------------------------------------|
E|-------------------------------------------------------------|

e|-2-2-3-2--2-2-3-2--5-5-2-2-3-2--2-2-3-2--5-5-|
B|-3-3-3-3--3-3-3-3--3-3-3-3-3-3--3-3-3-3--3-3-|
G|---------------------------------------------|
D|---------------------------------------------|
A|---------------------------------------------|
E|---------------------------------------------|

VERSE 2 - palm muted.
e|---------------------------------------------------------|
B|---------------------------------------------------10-10-|
G|---7-4----9-6----11-7--11-9----7-4----9-6----11-7--------|
D|-5------7------9-------------5------7------9-------------| x2
A|---------------------------------------------------------|
E|---------------------------------------------------------|
PM . . .  . . .  . .  .  .  .  . . .  . . .  . .  .  .  .

The story goeeeeeeeeeeees..... - Harmonics.
e|-------|
B|-7---7-|
G|---7---|
D|-------| x4
A|-------|
E|-------|
   + + +

CHORUS RIFF: Listen for strumming pattern.
e|-2-2-2-3-3-2--0-0-2--223-2-0-2-2-2-2-3-3-2--0-0-2--223-2-0-2-|
B|-3-3-3-3-3-3--3-3-3--333-3-3-3-3-3-3-3-3-3--3-3-3--333-3-3-3-|
G|-------------------------------------------------------------|
D|-------------------------------------------------------------|
A|-------------------------------------------------------------|
E|-------------------------------------------------------------|

e|-2-2-3-2--2-2-3-2--5-5-2-2-3-2--2-2-3-2--5-5-|
B|-3-3-3-3--3-3-3-3--3-3-3-3-3-3--3-3-3-3--3-3-|
G|---------------------------------------------|
D|---------------------------------------------|
A|---------------------------------------------|
E|---------------------------------------------|

The story goeeeeeeeeeeees..... - palm muted.
e|-----------------------------------------------------------------|
B|---------------------------------5-5-5-5-5-5-5-5-5-5-5-5-5-5-5-5-|
G|-7-7-7-7-7-7-7-7-6-6-6-6-6-6-6-6-7-7-7-7-7-7-7-7-6-6-6-6-6-6-6-6-| x2
D|-7-7-7-7-7-7-7-7-7-7-7-7-7-7-7-7-7-7-7-7-7-7-7-7-7-7-7-7-7-7-7-7-|
A|-----------------------------------------------------------------|
E|-----------------------------------------------------------------|
PM . . . . . . . . . . . . . . . . . . . . . . . . . . . . . . . . 

CHORUS RIFF: Listen for strumming pattern.
e|-2-2-2-3-3-2--0-0-2--223-2-0-2-2-2-2-3-3-2--0-0-2--223-2-0-2-|
B|-3-3-3-3-3-3--3-3-3--333-3-3-3-3-3-3-3-3-3--3-3-3--333-3-3-3-|
G|-------------------------------------------------------------|
D|-------------------------------------------------------------|
A|-------------------------------------------------------------|
E|-------------------------------------------------------------|

e|-2-2-3-2--2-2-3-2--5-5-2-2-3-2--2-2-3-2--5-5-|
B|-3-3-3-3--3-3-3-3--3-3-3-3-3-3--3-3-3-3--3-3-|
G|---------------------------------------------|
D|---------------------------------------------|
A|---------------------------------------------|
E|---------------------------------------------|

Take a seat - Guitar Solo.
e|------------------------------------------------------------------|
B|------------------------------------------------------------------|
G|------------------------------------------------------------------|
D|-14br-14p12-14h16p14-12-------12--14br-14p12-14h16p14-12-------12-|
A|------------------------12-14----------------------------12-14----|
E|------------------------------------------------------------------|

e|----------------------------------------------------------------------------|
B|----------------------------------------------------------------------------|
G|----------------------------------------------------------------------------|
D|-14br-14p12-14h16p14-12-------12~-------12~-------12~-/16-/16-14-12----12~\-|
A|------------------------12-14-----12-14-----12-14-------------------14------|
E|----------------------------------------------------------------------------|

OUTRO (join Guitar 1's chorus riff):
e|-----------------------------------------------|
B|-----------------------------------------------|
G|----7----------7----------7----------7---------|
D|-55-7-777-4455-7-777-4455-7-777-4455-7-777-445-|
A|-55-5-777-4455-5-777-4455-5-777-4455-5-777-445-|
E|-33---555-2233---555-2233---555-2233---555-223-|

-----------------------------------------------------------------------------

/   slide up
\   slide down
h   hammer-on
p   pull-off
~   vibrato
+   harmonic
x   Mute note
b   bend
r   release
Tap to rate this tab
# A B C D E F G H I J K L M N O P Q R S T U V W X Y Z