Song name
# A B C D E F G H I J K L M N O P Q R S T U V W X Y Z

Kids In Glass Houses - Sunshine tab

Right guys, I was messing about listening to this song when it just clicked... well, mostly anyway
I thought i'd post this as a starter, 
as there wasn't any other available online. 
Feel free to add to it - obviously this is purely 
intended as a base to the song as there was nothing else around!
Enjoy

Tuning - Standard

Intro/Chorus

|-------------------------------------|
|-------------------------------------|
|-9-9-8----9-9-8----9-9-8----9-9-8----|
|-------9--------9--------9--------9--|
|-------------------------------------|
|-------------------------------------|

|---------------------------------------------|
|---------------------------------------------|
|-11-11-9----11-11-9----11-11-9----11-11-9----|
|---------9----------9----------9----------9--|
|---------------------------------------------|
|---------------------------------------------|

|---------------------------------------------------|
|---------------------------------------------------|
|-9-9-8----9-9-8----9-9-8----9-9-8---9/13 x8--11 x8-|
|-------9--------9--------9--------9----------------|
|---------------------------------------------------|
|---------------------------------------------------|

Verse

|------------------------------------------------|
|------------------------------------------------|
|-6--6--6--6--8--8--8--8--9--9--9--9--8--8--8--8-|  x4
|---9--9--9--9--9--9--9--9--9--9--9--9--9--9--9--|
|------------------------------------------------|
|------------------------------------------------|
  . . . . . . . . . . . . . . . . . . . . . . . . pm

Chorus x2

Bridge (Long live me cos i'll be fine without you)

|------------------------------------------|
|------------------------------------------|
|------------------------------------------|
|-2-2-2-2~-9-9-9-9~-11-11-11-11~-7-7-7-7~--|
|-2-2-2-2~-9-9-9-9~-11-11-11-11~-7-7-7-7~--|
|-0-0-0-0~-7-7-7-7~--9--9--9--9~-5-5-5-5~--|

Chorus x2

Bridge to outro x4
Tap to rate this tab
 
# A B C D E F G H I J K L M N O P Q R S T U V W X Y Z