Song name
# A B C D E F G H I J K L M N O P Q R S T U V W X Y Z

Kids In Glass Houses - The Best Is Yet To Come tab

Kids In Glass Houses
The Best Is Yet To Come

If you have any questions just comment, and don't forget to rate!
Thanks, enjoy :D

Tuning - Drop D (DADGBe)

Regarding guitar 2's lead parts in the chorus and post chorus, 
if you want you can play the notes as straight 8th notes. 
Its hard to hear whats being played exactly, but I think if you play what I have put with a delay 
pedal on top it sounds rather close to the record. 
But its up to you :).


###INTRO###
[00:00 - 00:12]

Guitar 1
                                   
|---------------|--------------------|
|---------------|--------------------|
|6-6-6-7-7-7-7-7|9-9-9-11-11-11-11-11|
|4-4-4-5-5-5-5-5|7-7-7-9--9--9--9--9-|   x3
|4-4-4-5-5-5-5-5|7-7-7-9--9--9--9--9-|
|4-4-4-5-5-5-5-5|7-7-7-9--9--9--9--9-|

|-----------------------|---------------|
|-----------------------|---------------|
|11-11-11-11-11-11-11-11|9-9-9-9-9------|
|9--9--9--9--9--9--9--9-|7-7-7-7-7------|
|9--9--9--9--9--9--9--9-|7-7-7-7-7------|
|9--9--9--9--9--9--9--9-|7-7-7-7-7------|

Guitar 2
             x6
|-----------------------|-----------------------|------------------|
|17-17-17-15-15-15-14-15|15-15-15-15-15-15-15-15|14-14-14-14-14\---|
|14-14-14-14-14-14-14-14|14-14-14-14-14-14-14-14|14-14-14-14-14\---|
|-----------------------|-----------------------|------------------|
|-----------------------|-----------------------|------------------|
|-----------------------|-----------------------|------------------|

###VERSE###
[00:12 - 00:36]
(Both guitars comes in at 00:24)

Guitar 1
   x6
|------|-----------------------|-----------------------|
|------|-----------------------|10-10-10-10-10-10-10-10|
|11--x8|9--9--9--9--9--9--9--9-|9--9--9--9--9--9--9--9-|
|12----|11-11-11-11-11-11-11-11|11-11-11-11-11-11-11-11|
|------|-----------------------|-----------------------|
|------|-----------------------|-----------------------|
 .       .  .  .  .  .  .  .  .  

Guitar 2
                                                  x4     x2
|14---------------------|----------------------|------|------|
|---15----15-15-15-15-15|17---15-15-15-15-15-15|15----|14----|
|------14-14-14-14-14-14|14---14-14-14-14-14-14|14--x8|14--x8|
|-----------------------|----------------------|------|------|
|-----------------------|----------------------|------|------|
|-----------------------|----------------------|------|------|


###PRE CHORuS###
[00:36 - 00:48]

Guitar 1

|---------------|---------------|-----------------------|-----------------------|
|---------------|---------------|-----------------------|-----------------------|
|7-7-7-7-7-7-7-7|9-9-9-9-9-9-9-9|11-11-11-11-11-11-11-11|14-14-14-14-14-14-14-14|
|5-5-5-5-5-5-5-5|7-7-7-7-7-7-7-7|9--9--9--9--9--9--9--9-|12-12-12-12-11-11-11-11|
|5-5-5-5-5-5-5-5|7-7-7-7-7-7-7-7|9--9--9--9--9--9--9--9-|12-12-12-12-12-12-12-12|
|5-5-5-5-5-5-5-5|7-7-7-7-7-7-7-7|9--9--9--9--9--9--9--9-|12-12-12-12-11-11-11-11|


|---------------|---------------|-----------------------|-----------------------|
|---------------|---------------|-----------------------|-----------------------|
|7-7-7-7-7-7-7-7|9-9-9-9-9-9-9-9|11-11-11-11-11-11-11-11|9-9-9-9-9--------------|
|5-5-5-5-5-5-5-5|7-7-7-7-7-7-7-7|9--9--9--9--9--9--9--9-|7-7-7-7-7--------------|
|5-5-5-5-5-5-5-5|7-7-7-7-7-7-7-7|9--9--9--9--9--9--9--9-|7-7-7-7-7--------------|
|5-5-5-5-5-5-5-5|7-7-7-7-7-7-7-7|9--9--9--9--9--9--9--9-|7-7-7-7-7--------------|

Guitar 2
             x3
|-----------------------|17-17-17-17-17-17-17-17|
|17-17-17-15-15-15-14-15|15-15-15-15-15-15-15-15|
|14-14-14-14-14-14-14-14|14-14-14-14-14-14-14-14|
|-----------------------|-----------------------|
|-----------------------|-----------------------|
|-----------------------|-----------------------|
             x2
|-----------------------|-----------------------|------------------|
|17-17-17-15-15-15-14-15|15-15-15-15-15-15-15-15|14-14-14-14-14\---|
|14-14-14-14-14-14-14-14|14-14-14-14-14-14-14-14|14-14-14-14-14\---|
|-----------------------|-----------------------|------------------|
|-----------------------|-----------------------|------------------|
|-----------------------|-----------------------|------------------|

###CHORUS###
[00:48 - 01:00]

Guitar 1
               x2              x2                      x2
|-----------------------|---------------|-----------------------|
|-----------------------|---------------|-----------------------|
|14-14-14-14-14-14-14-14|6-6-6-6-6-6-6-6|11-11-11-11-11-11-11-11|
|12-12-12-12-12-12-12-12|4-4-4-4-4-4-4-4|9--9--9--9--9--9--9--9-|
|12-12-12-12-12-12-12-12|4-4-4-4-4-4-4-4|9--9--9--9--9--9--9--9-|
|12-12-12-12-12-12-12-12|4-4-4-4-4-4-4-4|9--9--9--9--9--9--9--9-|

|---------------|-----------------------|
|---------------|-----------------------|
|9-9-9-9-9-9-9-9|11-11-11-11-13-13-13-13|
|7-7-7-7-7-7-7-7|9--9--9--9--11-11-11-11|
|7-7-7-7-7-7-7-7|9--9--9--9--11-11-11-11|
|7-7-7-7-7-7-7-7|9--9--9--9--11-11-11-11|

Guitar 2

|-------------14-14---17-17|----------------14-14--------|------------14-14---17-17|
|15---17-17----------------|15-15---17-17-----------14-14|15--17-17----------------|
|--------------------------|-----------------------------|-------------------------|
|--------------------------|-----------------------------|-------------------------|
|--------------------------|-----------------------------|-------------------------|
|--------------------------|-----------------------------|-------------------------|
|                                                  (^VV^)
|                                                   Or play fret 21 on top E string, 
|                                                    doubled on track, your choice :)
|
|17-17-17-14---------|
|--------------17----|
|--------------------|
|--------------------|
|--------------------|
|--------------------|

###POST CHORUS###
[01:00 - 01:06]

Guitar 1

|---------------|--------------------|
|---------------|--------------------|
|6-6-6-7-7-7-7-7|9-9-9-11-11-11-11-11|
|4-4-4-5-5-5-5-5|7-7-7-9--9--9--9--9-|   x2
|4-4-4-5-5-5-5-5|7-7-7-9--9--9--9--9-|
|4-4-4-5-5-5-5-5|7-7-7-9--9--9--9--9-|

Guitar 2

|-----17--------|-----17--------|--------|
|15--------17~--|15--------14~--|15-15~--|
|---------------|---------------|--------|
|---------------|---------------|--------|
|---------------|---------------|--------|
|---------------|---------------|--------|

###VERSE 2###
[01:06 - 01:30]

###PRE CHORUS###
[01:30 - 01:42]

###CHORUS### x2
[01:42 - 02:06]

###POST CHORUS 2### x2
[02:06 - 02:18]

Guitar 1

|---------------|--------------------|
|---------------|--------------------|
|6-6-6-7-7-7-7-7|9-9-9-11-11-11-11-11|
|4-4-4-5-5-5-5-5|7-7-7-9--9--9--9--9-|   x3
|4-4-4-5-5-5-5-5|7-7-7-9--9--9--9--9-|
|4-4-4-5-5-5-5-5|7-7-7-9--9--9--9--9-|

|-----------------------|---------------|
|-----------------------|---------------|
|11-11-11-11-11-11-11-11|9-9-9-9-9-9-9-9|
|9--9--9--9--9--9--9--9-|7-7-7-7-7-7-7-7|
|9--9--9--9--9--9--9--9-|7-7-7-7-7-7-7-7|
|9--9--9--9--9--9--9--9-|7-7-7-7-7-7-7-7|

Guitar 2

|-----17--------|-----17--------|-----17------|----------14-----|---------|
|15--------17~--|15--------17~--|15--------17-|15---17--------14|15-15\---|
|---------------|---------------|-------------|-----------------|---------|
|---------------|---------------|-------------|-----------------|---------|
|---------------|---------------|-------------|-----------------|---------|
|---------------|---------------|-------------|-----------------|---------|

###BRIDGE###
[02:18 - 02:42]

Guitar 1

  x14 
|-----|-------------|-------------|
|7--x8|5-5-5-5-5-5-5|5-5-5-5-5-5-5|
|7----|7-7-7-7-7-7-7|7-7-7-7-7-7-7|
|-----|-------------|-------------|
|-----|-------------|-------------|
|-----|-------------|-------------|
 .     

Guitar 2 -> Come in at 02:30
            x6                    x2
|-----------------------|-------------------|
|-----------------------|-------------------|
|11----11----11----11---|9----9----9----9---|
|---12----12----12----12|--12---12---12---12|
|-----------------------|-------------------|
|-----------------------|-------------------|
 .  .  .  .  .  .  .  .

###BRIDGE 2###
[02:42 - 02:54]

Guitar 1 - Chorus Chords

Guitar 2
           x6
|-----------------------|-----------------------|-----------------------|
|17-17-17-15-15-15-14-15|15-15-15-15-15-15-15-15|15-15-15-15-17-17-17-17|
|14-14-14-14-14-14-14-14|14-14-14-14-14-14-14-14|14-14-14-14-14-14-14-14|
|-----------------------|-----------------------|-----------------------|
|-----------------------|-----------------------|-----------------------|
|-----------------------|-----------------------|-----------------------|

###KEY CHANGE CHORUS###
[02:54 - 03:18]

Guitar 1

        x2             x2                  x2
|---------------|---------------|-----------------------|-----------------------|
|---------------|---------------|-----------------------|-----------------------|
|9-9-9-9-9-9-9-9|8-8-8-8-8-8-8-8|13-13-13-13-13-13-13-13|11-11-11-11-11-11-11-11|
|9-9-9-9-9-9-9-9|6-6-6-6-6-6-6-6|11-11-11-11-11-11-11-11|9--9--9--9--9--9--9--9-|
|7-7-7-7-7-7-7-7|6-6-6-6-6-6-6-6|11-11-11-11-11-11-11-11|9--9--9--9--9--9--9--9-|
|---------------|6-6-6-6-6-6-6-6|11-11-11-11-11-11-11-11|9--9--9--9--9--9--9--9-|
|
|---------------|
|---------------|
|4-4-4-4-4-4-4-4|
|2-2-2-2-2-2-2-2|   
                        
                    
Tap to rate this tab
 
# A B C D E F G H I J K L M N O P Q R S T U V W X Y Z