Song name
# A B C D E F G H I J K L M N O P Q R S T U V W X Y Z

Kids In Glass Houses - Fire tab

This is the first tab I'm uploading, I figured this out by ear. The song starts 
with some feedback.
I hope this is right =)

Standard tuning: eBGDAE

Verse (palm-muted)
e: ---------------------------------------------|
B: ---------------------------------------------|
G: ---------------------------------------------|
D: ---------------4-----------------------------|
A: -----2-----2------2--------------------------|
E: --4-----4------------4--0--2-----------------|

Post-chorus chords (palm-muted, I play the power chords)
E, G#, F#

Chorus chords
B, F #, E, G#, F#

Repeat verse but un-mute the strings
Post-chorus
Chorus

Bridge
e: --------------------------------------------7----|
B: ---9--7-----9--7-----9--7----9--7----99----------|
G: ---------8--------8--------8-------8-------------|
D: -------------------------------------------------|
A: -------------------------------------------------|
E: -------------------------------------------------| x3

e: --6-6-6-6--7-7-7-7--9-9-9-9-9--11---------------|
B: ------------------------------------------------|
G: ------------------------------------------------|
D: ------------------------------------------------|
A: ------------------------------------------------|
E: ------------------------------------------------|

Repeat bridge
Play the bass notes after the bridge: open E, G#, F#

Chorus
Tap to rate this tab
 
# A B C D E F G H I J K L M N O P Q R S T U V W X Y Z