Song name
# A B C D E F G H I J K L M N O P Q R S T U V W X Y Z

Kids In Glass Houses - Matters At All tab

Hi everyone, this is my second tab. I tabbed this song because it is awesome. Enjoy -!

pm - Palm Muted
~ - Sustain Note/Chord

Intro - This riff is played throughout the verses.
e|---------------------|-------------------|pm
B|------8---10--8---8--|------8---10--8----|
G|--7-7---7-------7----|--7-7---7-------7--|
D|---------------------|-------------------|
A|---------------------|-------------------|
E|---------------------|-------------------|

Verse 1
e|---------------------|
B|---------------------|
G|-----------------5~--|
D|--5~---5~---2~---5~--|
A|--5~---5~---2~---3~--|
E|--3~---3~---0~-------|x2

Pre-chorus
e|-----------------|
B|-----------------|
G|------------5~---|
D|--5~---2~---5~---|
A|--5~---2~---3~---|
E|--3~---0~--------|x2

Chorus                             This is the lead played over the top.
e|-----------------------|       e|------------------|--------------------|
B|-----------------------|       B|--8-8-8-7-7-7-3-3-|--7-7-7-8-8-8-10-10-|
G|--------------5-----7--|       G|--7-7-7-7-7-7-2-2-|--7-7-7-7-7-7--7--7-|
D|--5-----2-----5-----7--|       D|------------------|--------------------|
A|--5-----2-----3-----5--|       A|------------------|--------------------|
E|--3-----0--------------|x2     E|------------------|--------------------|
  (x16) (x16) (x16) (x16)

Verse 2
e|-------------------------------|----------------------|
B|-------------------------------|----------------------|
G|---------------------------5~--|-----------------5~---|
D|--5~---5~---5~---5~---2~---5~--|--5~---5~---2~---5~---|
A|--5~---5~---5~---5~---2~---3~--|--5~---5~---2~---3~---|
E|--3~---3~---3~---3~---0~-------|--3~---3~---0~--------|

Pre-chorus
e|-----------------|
B|-----------------|
G|------------5~---|
D|--5~---2~---5~---|
A|--5~---2~---3~---|
E|--3~---0~--------|x2

Chorus
e|-----------------------|     e|------------------|--------------------|
B|-----------------------|     B|--8-8-8-7-7-7-3-3-|--7-7-7-8-8-8-10-10-|
G|--------------5-----7--|     G|--7-7-7-7-7-7-2-2-|--7-7-7-7-7-7--7--7-|
D|--5-----2-----5-----7--|     D|------------------|--------------------|
A|--5-----2-----3-----5--|     A|------------------|--------------------|
E|--3-----0--------------|x2   E|------------------|--------------------|
  (x16) (x16) (x16) (x16)

Bridge - Lead Riff
e|-------------------------------------|     e|-----|
B|--8-8-8-8--3-3-3-3--0-0--10-10-10-10-|     B|--8--|
G|-------------------------------------|     G|-----|
D|-------------------------------------|     D|-----|
A|-------------------------------------|     A|-----|
E|-------------------------------------|     E|-----|x24

e|-------------| Riff at the end of the bridge.
B|-------------|
G|--4/5--------|
D|--4/5---5/7--|
A|--2/3---5/7--|
E|--------3/5--|

After playing six(6)of the first bar;
e|-----------------|-------------------| <- The second bar is played.
B|-8-8-8-7-7-7-3-3-|-7-7-7-8-8-8-10-10-|
G|-7-7-7-7-7-7-2-2-|-7-7-7-7-7-7--7--7-|
D|-----------------|-------------------|
A|-----------------|-------------------|
E|-----------------|-------------------|

Chorus/Outro
e|-----------------------|
B|-----------------------|
G|--------------5-----7--|
D|--5-----2-----5-----7--|
A|--5-----2-----3-----5--|
E|--3-----0--------------|x4
  (x16) (x16) (x16) (x16)

e|--------|
B|--------|
G|--------|
D|---5~---|
A|---5~---|
E|---3~---|

Please rate, cheers! Mur.
Tap to rate this tab
# A B C D E F G H I J K L M N O P Q R S T U V W X Y Z