Song name
# A B C D E F G H I J K L M N O P Q R S T U V W X Y Z

Kiernan Mcmullan - Borderline chords

Highlighted       Show chord diagrams
Standard Tuning, Capo 2. Then take another capo and put
it over the low E, A, D, and G strings ONLY, and on the
6th fret. If you don't have 2 capos, tune your B string
to a C# (full step) and your E a full step up to F#, and
use only the capo on 6.

Now that that's out of the way, here are the chords. The
B and E (C# and F#) strings are always open while
strumming. I will name the chords by how they look, not
the sound.

Chorus and Verses

    C      F      G      A
E|--0------0------0------0------------|
B|--0------0------0------0------------|
G|--0------0------0------2------------|
D|--2------3------0------2------------|
A|--3------3------2------0------------|
E|--0------1------3------0------------|

Little interlude thing "comes back around and hits..."

    A      F      G
E|--0------0------0-----|
B|--0------0------0-----|
G|--0------0------0-----|
D|--7------3------5-----|
A|--7------3------5-----|
E|--5------1------3-----|

A                                    F
     Comes back around and kicks me from behind

     F        G        A
     Tryin to compromise

A                                      F
     Always fallin on your feet and pretendin like

     F            G
     You never tried
Tap to rate this tab
 
# A B C D E F G H I J K L M N O P Q R S T U V W X Y Z