Song name
# A B C D E F G H I J K L M N O P Q R S T U V W X Y Z

Kiko Machine - Pulp tab

intro: (timingan nyo nalang..)

e|-----------------------------------------------|--------|
B|-----------------------------------------------|--------|
G|-----------------------------------------------|--------|
D|-----------------------------------------------|-7~-7~--|
A|-----------------3-3-3-3-5-3--5-5-7-5-7-5-7-5--|-7~---7~|
E|-5-5-7-5-5-7-5-x2------------------------------|-5~-----|
   . . . . . . .   . . . . . .  . . . . . . . .                                          
                                    kailangan....

verse part1: (timingan nyo nalang..)

e|--------------------------------------------------------|
B|--------------------------------------------------------|
G|--------------------------------------------------------|
D|-5~-5~---7~-7~---5~-5~----------------------------------|
A|-5~--5~--7~---7~-5~---5~--------------------------------|
E|-3~------5~------3~-------------------------------------|
                       hinihiyawan(haaay!!!)

verse part2: (timingan nyo nalanang..)

e|--------------------------------------------------------|
B|--------------------------------------------------------|
G|--------------------------------------------------------|
D|------------------5-5-5-5-5-5-5-5-5--7-7-7-7-7-7-7-7----|
A|-7-7-7-7-7-7-7-7--3-3-3-3-3-3-3-3-3--5-5-5-5-5-5-5-5-X2-|
E|-5-5-5-5-5-5-5-5----------------------------------------|
   . . . . . . . .  . . . . . . . . .  . . . . . . . .
  kailangan dumiskarte....


chorus: (timingan nyo nalang...)

e|---------------------------------------------------------|
B|---------------------------------------------------------|
G|---------------------------------------------------------|
D|--------------5-5-5-5-5-5--7-7-7-7-7-7-------------------|
A|-7-7-7-7-7-7--3-3-3-3-3-3--5-5-5-5-5-5-------------------|
E|-5-5-5-5-5-5---------------------------------------------|
  kelan kaya kami....

bridge part 1:

e|---------------------------------------------------------|
B|---------------------------------------------------------|
G|---------------------------------------------------------|
D|----9/8-7-------9/8-7------------------------------------|
A|-7~-7/6-5----7~-7/6-5------------------------------------|
E|-5~----------5~------------------------------------------|

SORRY GUYS HIRAP KASI KUNG LALAGAY KO PA YUNG SOLO...
PLAY NYO NALANG YUNG CHORDS NG CHORUS.....

e|---------------------------------------------------------|
B|---------------------------------------------------------|
G|---------------------------------------------------------|
D|---------------------------------------------------------|
A|-7-7-7~--------------------------------------------------|
E|-5-5-5~--------------------------------------------------|
  wala ng aayaw....

REPEAT CHORUS....
OUTRO(repeat intro)

end...


wooohooo ang hirap nun huh... hehehe...
SALAMAT SAINYO.....!!!! \m/
sa lahat ng hindi tatangkilik sa tab ko e-mail me at skadiks@yahoo.com

sa mga kabanda koh!!! mga kupal.... 3 peice parin kami!!!

ISCOSELES...
jr ocava - lead guitars/rhythms... lead vocals..
jobi ocava - drums/vocals...
jason "daga" semorlan - bass/vocals...

sainyong lahat suporta sa pinoy rock... \m/
Tap to rate this tab
 
# A B C D E F G H I J K L M N O P Q R S T U V W X Y Z