Song name
# A B C D E F G H I J K L M N O P Q R S T U V W X Y Z

Killers - Jenny Was A Friend Of Mine Acoustic chords

Highlighted       Show chord diagrams
Jenny was a friend of mine [by the killers] 

Intro
  Ebm           C#             B          C#B|Bbm|F# 
|-6-6-6---------4-4-4----------2-2-2-2-2---4-2-1-2--|
|-7-7-7---------6-6-6----------4-4-4-4-4---6-4-2-2--|
|-8-8-8---------6-6-6----------4-4-4-4-4---6-4-3-3--|
|-8-8-8---------6-6-6----------4-4-4-4-4---6-4-3-4--|
|-6-6-6--6-8-7--4-4-4--4-------2-2-2-2-2---4-2-1-4--|
|-------------------------7-6--------------------2--| x4
  d u d         d u d          d u d u d   d d d d  

d = downstrum u = upstrum               *=play fast

Verse - (you can cut out bass notes here if you like)
Ebm                 C#                       B    *C#/B/Bbm/F   
We took a walk that night, but it wasn't the same
We had a fight on the promenade out in the rain
She said she loved me, but she had somewhere to go
Ebm                         C# 
She couldn't scream while I held I close
  B
I swore I'd never let her go

B                C#    
Tell me what you wanna know
        F# 
Oh come on, oh come on, oh come on
      B               C# 
There ain't no motive for this crime
F#    F5    Ebm      
Jenny was a friend of mine
        B               C# 
So come on, oh come on, oh come on

I know my rights, I've been here all day and it's time
For me to go, so let me know if it's alright
I just can't take this, I swear I told you the truth
She couldn't scream while I held I close
I swore I'd never let her go

Tell me what you wanna know
Oh come on, oh come on, oh come on
And then you whisper in my ear
I know what you're doing here
So come on, oh come on, oh come on

Outro - 

|-6-6-6-------4-4---------2-2-1-2-2-2-6-4-|
|-7-7-7-------6-6---------4-4-2-4-2-4-7-6-|
|-8-8-8-------6-6---------4-4-3-4-4-4-8-6-|
|-8-8-8-6-8-6-6-6--3-4-6--4-4-3-4-4-4-8-6-|
|-6-6-6-------4-4-4-------2-2-1-2-2-2-6-4-|
|-----------------------------------------|
Tap to rate this tab
# A B C D E F G H I J K L M N O P Q R S T U V W X Y Z