Song name
# A B C D E F G H I J K L M N O P Q R S T U V W X Y Z

Killers - Mr Brightside Acoustic tab

The Killers - Mr Brightside Acoustic

Tabbed by: EvertorN
CAPO: 2nd fret
TUNING: Standard

Hey guys, this is the acoustic version of Mr Brightside by the Killers. Check it out, 
it and leave a comment. ;-)


[INTRO]

GUITAR 1

E|--------------------------------------------------------------------------|
B|--------------3-----------------------3-----------------------3-----------|
G|--------0--------0-----0--------0--------0-----0--------0--------0-----0--|
D|-----0-----0--------0--------0-----0--------0--------0-----0--------0-----|
A|--------------------------------------------------3-----------------------|
E|--3-----------------------2-----------------------------------------------|

E|--------------------------|
B|--------------3-----------|
G|--------0--------0-----0--|   X2
D|-----0-----0--------0-----|
A|--3-----------------------|
E|--------------------------|

GUITAR 2

Nothing

[VERSE]

Play this from the "Coming out of my cage" part:
GUITAR 1

E|--------------------------------------------------------------------------|
B|--------------3-----------------------3-----------------------3-----------|
G|--------0--------0-----0--------0--------0-----0--------0--------0-----0--|
D|-----0-----0--------0--------0-----0--------0--------0-----0--------0-----|
A|--------------------------------------------------3-----------------------|
E|--3-----------------------2-----------------------------------------------|

E|--------------------------|
B|--------------3-----------|
G|--------0--------0-----0--|   X4
D|-----0-----0--------0-----|
A|--3-----------------------|
E|--------------------------|

GUITAR 2

E|--3-----------------------3-----------------------3------------------------|
B|--3-----------------------3-----------------------3------------------------|
G|--0-----------------------0-----------------------0------------------------|
D|--0-----------------------0-----------------------2------------------------|
A|--2-----------------------2-----------------------3------------------------|
E|--3-----------------------2------------------------------------------------|

E|--3-----------------------|
B|--3-----------------------|
G|--0-----------------------|  X4
D|--2-----------------------|
A|--3-----------------------|
E|--------------------------|

Play this from the "But she's touching his chest" part:

GUITAR 1

E|--------------------------------------------------------------------------|
B|--------------3-----------------------3-----------------------3-----------|
G|--------0--------0-----0--------0--------0-----0--------0--------0-----0--|
D|-----0-----0--------0--------0-----0--------0--------0-----0--------0-----|
A|--------------------------------------------------3-----------------------|
E|--3-----------------------2-----------------------------------------------|

E|--------------------------|
B|--------------3-----------|
G|--------0--------0-----0--|  X4
D|-----0-----0--------0-----|
A|--3-----------------------|
E|--------------------------|

GUITAR 2

E|--3-----3--3-----3--3--3--3-----3--3-----3--3--3--3-----3--3-----3--3--3--|
B|--3-----3--3-----3--3--3--3-----3--3-----3--3--3--3-----3--3-----3--3--3--|
G|--0-----0--0-----0--0--0--0-----0--0-----0--0--0--0-----0--0-----0--0--0--|
D|--0-----0--0-----0--0--0--0-----0--0-----0--0--0--2-----2--2-----2--2--2--|
A|--2-----2--2-----2--2--2--2-----2--2-----2--2--2--3-----3--3-----3--3--3--|
E|--3-----3--3-----3--3--3--2-----2--2-----2--2--2--------------------------|

E|--3-----3--3-----3--3--3--|
B|--3-----3--3-----3--3--3--|
G|--0-----0--0-----0--0--0--|  X4
D|--2-----2--2-----2--2--2--|
A|--3-----3--3-----3--3--3--|
E|--------------------------|


Play this from the "Jealousy, turning saints into the sea" part:

GUITAR 1 & 2

E|--3-----3--3-----3--3--3--3-----3--3-----3--3--3--3-----3--3-----3--3--3--|
B|--3-----3--3-----3--3--3--3-----3--3-----3--3--3--3-----3--3-----3--3--3--|
G|--0-----0--0-----0--0--0--0-----0--0-----0--0--0--0-----0--0-----0--0--0--|
D|--0-----0--0-----0--0--0--2-----2--2-----2--2--2--2-----2--2-----2--2--2--|
A|--2-----2--2-----2--2--2--3-----3--3-----3--3--3--------------------------|
E|--3-----3--3-----3--3--3--------------------------------------------------|

E|--3-----3--3-----3--3--3--|
B|--3-----3--3-----3--3--3--|
G|--0-----0--0-----0--0--0--|  X4
D|--0-----0--0-----0--0--0--|
A|--3-----3--3-----3--3--3--|
E|--------------------------|

Now you get the little solo part, just play this:

GUITAR 1

E|--7--7--8--10--8--10--8--7--7--7--8--7------7------7--|
B|----------------------------------------10-----10-----|
G|------------------------------------------------------|  X2
D|------------------------------------------------------|
A|------------------------------------------------------|
E|------------------------------------------------------|

GUITAR 2

E|--3-----3--3-----3--3--3--3-----3--3-----3--3--3--3-----3--3-----3--3--3--|
B|--3-----3--3-----3--3--3--3-----3--3-----3--3--3--3-----3--3-----3--3--3--|
G|--0-----0--0-----0--0--0--0-----0--0-----0--0--0--0-----0--0-----0--0--0--|
D|--0-----0--0-----0--0--0--2-----2--2-----2--2--2--2-----2--2-----2--2--2--|
A|--2-----2--2-----2--2--2--3-----3--3-----3--3--3--------------------------|
E|--3-----3--3-----3--3--3--------------------------------------------------|

E|--3-----3--3-----3--3--3--|
B|--3-----3--3-----3--3--3--|
G|--0-----0--0-----0--0--0--|  X2
D|--0-----0--0-----0--0--0--|
A|--3-----3--3-----3--3--3--|
E|--------------------------|

[VERSE 2]

Play this from the "Coming out of my cage" part:

GUITAR 1

E|--------------------------------------------------------------------------|
B|--------------3-----------------------3-----------------------3-----------|
G|--------0--------0-----0--------0--------0-----0--------0--------0-----0--|
D|-----0-----0--------0--------0-----0--------0--------0-----0--------0-----|
A|--------------------------------------------------3-----------------------|
E|--3-----------------------2-----------------------------------------------|

E|--------------------------|
B|--------------3-----------|
G|--------0--------0-----0--|   X4
D|-----0-----0--------0-----|
A|--3-----------------------|
E|--------------------------|

GUITAR 2

E|--3-----3--3-----3--3--3--3-----3--3-----3--3--3--3-----3--3-----3--3--3--|
B|--3-----3--3-----3--3--3--3-----3--3-----3--3--3--3-----3--3-----3--3--3--|
G|--0-----0--0-----0--0--0--0-----0--0-----0--0--0--0-----0--0-----0--0--0--|
D|--0-----0--0-----0--0--0--0-----0--0-----0--0--0--2-----2--2-----2--2--2--|
A|--2-----2--2-----2--2--2--2-----2--2-----2--2--2--3-----3--3-----3--3--3--|
E|--3-----3--3-----3--3--3--2-----2--2-----2--2--2--------------------------|

E|--3-----3--3-----3--3--3--|
B|--3-----3--3-----3--3--3--|
G|--0-----0--0-----0--0--0--|  X4
D|--2-----2--2-----2--2--2--|
A|--3-----3--3-----3--3--3--|
E|--------------------------|

Play this from the "But she's touching his chest" part:

GUITAR 1 & 2

E|--3-----3--3-----3--3--3--3-----3--3-----3--3--3--3-----3--3-----3--3--3--|
B|--3-----3--3-----3--3--3--3-----3--3-----3--3--3--3-----3--3-----3--3--3--|
G|--0-----0--0-----0--0--0--0-----0--0-----0--0--0--0-----0--0-----0--0--0--|
D|--0-----0--0-----0--0--0--0-----0--0-----0--0--0--2-----2--2-----2--2--2--|
A|--2-----2--2-----2--2--2--2-----2--2-----2--2--2--3-----3--3-----3--3--3--|
E|--3-----3--3-----3--3--3--2-----2--2-----2--2--2--------------------------|

E|--3-----3--3-----3--3--3--|
B|--3-----3--3-----3--3--3--|
G|--0-----0--0-----0--0--0--|  X4
D|--2-----2--2-----2--2--2--|
A|--3-----3--3-----3--3--3--|
E|--------------------------|

Play this from the "Jealousy, turning saints into the sea" part:

GUITAR 1 & 2

E|--3-----3--3-----3--3--3--3-----3--3-----3--3--3--3-----3--3-----3--3--3--|
B|--3-----3--3-----3--3--3--3-----3--3-----3--3--3--3-----3--3-----3--3--3--|
G|--0-----0--0-----0--0--0--0-----0--0-----0--0--0--0-----0--0-----0--0--0--|
D|--0-----0--0-----0--0--0--2-----2--2-----2--2--2--2-----2--2-----2--2--2--|
A|--2-----2--2-----2--2--2--3-----3--3-----3--3--3--------------------------|
E|--3-----3--3-----3--3--3--------------------------------------------------|

E|--3-----3--3-----3--3--3--|
B|--3-----3--3-----3--3--3--|
G|--0-----0--0-----0--0--0--|  X4
D|--0-----0--0-----0--0--0--|
A|--3-----3--3-----3--3--3--|
E|--------------------------|

[Outro]

GUITAR 1

E|--7--7--8--10--8--10--8--7--7--7--8--7------7------7--|
B|----------------------------------------10-----10-----|
G|------------------------------------------------------|  X5
D|------------------------------------------------------|
A|------------------------------------------------------|
E|------------------------------------------------------|

GUITAR 2

E|--3-----3--3-----3--3--3--3-----3--3-----3--3--3--3-----3--3-----3--3--3--|
B|--3-----3--3-----3--3--3--3-----3--3-----3--3--3--3-----3--3-----3--3--3--|
G|--0-----0--0-----0--0--0--0-----0--0-----0--0--0--0-----0--0-----0--0--0--|
D|--0-----0--0-----0--0--0--2-----2--2-----2--2--2--2-----2--2-----2--2--2--|
A|--2-----2--2-----2--2--2--3-----3--3-----3--3--3--------------------------|
E|--3-----3--3-----3--3--3--------------------------------------------------|

E|--3-----3--3-----3--3--3--|
B|--3-----3--3-----3--3--3--|
G|--0-----0--0-----0--0--0--|  X5
D|--0-----0--0-----0--0--0--|
A|--3-----3--3-----3--3--3--|
E|--------------------------|

GUITAR 1

E|--7--7--8--10--8--10--8--7--7--7--8--7----------------|
B|----------------------------------------10--8--9------|
G|------------------------------------------------------|
D|------------------------------------------------------|
A|------------------------------------------------------|
E|------------------------------------------------------|

GUITAR 2

E|--3-----3--3-----3--3--3--3-----3--3-----3--3--3--3-----3--3-----3--3--3--|
B|--3-----3--3-----3--3--3--3-----3--3-----3--3--3--3-----3--3-----3--3--3--|
G|--0-----0--0-----0--0--0--0-----0--0-----0--0--0--0-----0--0-----0--0--0--|
D|--0-----0--0-----0--0--0--2-----2--2-----2--2--2--2-----2--2-----2--2--2--|
A|--2-----2--2-----2--2--2--3-----3--3-----3--3--3--------------------------|
E|--3-----3--3-----3--3--3--------------------------------------------------|

E|--3-----3--3-----3--3--3--|
B|--3-----3--3-----3--3--3--|
G|--0-----0--0-----0--0--0--|
D|--0-----0--0-----0--0--0--|
A|--3-----3--3-----3--3--3--|
E|--------------------------|
Tap to rate this tab
 
# A B C D E F G H I J K L M N O P Q R S T U V W X Y Z