Song name
# A B C D E F G H I J K L M N O P Q R S T U V W X Y Z

Killers - Romeo And Juliet tab

This is the intro from The Killers cover of Dire Straits "Romeo And Juliet"
I'm pretty sure this is the right way to play it. Please contact me if you find this wrong. 

  A             A
e-5------5------9---------4-----|
b-5----5---5------10--------5---|
g-6--6---------------9--------4-|
d-------------------------------|
A-------------------------------|
E-------------------------------|


e-2-------------2---------4-5-7-|
b-3------3--------3-------------|
g-2----2---2--------2-----------|
d-0--0--------------------------|
A-------------------------------|
E-------------------------------|

  A             A
e-5------5------9---------4-----|
b-5----5---5------10--------5---|
g-6--6---------------9--------4-|
d-------------------------------|
A-------------------------------|
E-------------------------------|


e-2-------------2---------4-----|
b-3------3--------3---------5---|
g-2----2---2--------2---------4-|
d-0--0--------------------------|
A-------------------------------|
E-------------------------------|

The rest of the song is chords that I do not know... Hope you enjoyed ;)
Tap to rate this tab
# A B C D E F G H I J K L M N O P Q R S T U V W X Y Z