Song name
# A B C D E F G H I J K L M N O P Q R S T U V W X Y Z

Killers - Battle Born tab

Battle Born
The Killers
Battle Born (2012)


E |-----3----------------------|----------------------------|
B |--5-----5--3--5-----5--3----|--5-----5--3--5--3-----3----|
G |----------------------------|--------------------4-------|
D |----------------------------|----------------------------|
A |----------------------------|----------------------------|
E |----------------------------|----------------------------| (x3)

-----3----------------------|----------------------------|
--5-----5--3--5-----5--3----|--5-----5--3-----3-----3----|
----------------------------|--------------4-----4-------|
----------------------------|----------------------------|
----------------------------|----------------------------|
----------------------------|----------------------------|

-----3----------------------|----------------------------|
--5-----5--3--5-----5--3----|--5-----5--3--5--3-----3----|
----------------------------|--------------------4-------|
----------------------------|----------------------------|
----------------------------|----------------------------|
----------------------------|----------------------------|


-----3----------------------|----------------------------|
--5-----5--3--5-----5--3----|--5-----5--3--5--3----------|
----------------------------|--------------------4-------|
----------------------------|----------------------------|
----------------------------|----------------------------|
----------------------------|----------------------------|

*Capo 1

 F - C - Bb - C - Dm - F - Gm - F
Tap to rate this tab
# A B C D E F G H I J K L M N O P Q R S T U V W X Y Z