Guitaretab - guitar tabs
Song name
# A B C D E F G H I J K L M N O P Q R S T U V W X Y Z

Killing Me Inside - Forever tab

this is 100%
promise
cross my heart!:)

TABs BY: Jeremiah Constantino!

Intro
-------------------------------------------------------------|
-------------------------------------------------------------|
--------0------0--------------0-------0------0---------------|
------4--4---4--4------4-------4----4--4---4--4------4-------|
-----5-5--5-5-5--5---5--5---5---5--5-5--5-5-5--5---5--5------|
--------------------5-5--5-5-5--------------------5-5--5-----|
then in the 12 frets play nO.1,2,3 string in harmonics


Verse 1
-------------------------------------|
-------------------------------------|
--------0------0--------------0------|
------4--4---4--4------4-------4-----|
-----5-5--5-5-5--5---5--5---5---5----|
--------------------5-5--5-5-5-------|
I hope you know
But I always try
-------------------------------------|
-------------------------------------|
--------0------0--------------0------|
------4--4---4--4------4-------4-----|
-----5-5--5-5-5--5---5--5---5---5----|
--------------------5-5--5-5-5-------|
To be a good man untill my last breathe

-------------------------------------|
-------------------------------------|
--------0------0--------------0------|
------4--4---4--4------4-------4-----|
-----5-5--5-5-5--5---5--5---5---5----|
--------------------5-5--5-5-5-------|
I can pretend
The feeling for you
-------------------------------------|
-------------------------------------|
--------0------0--------------0------|
------4--4---4--4------4-------4-----|
-----5-5--5-5-5--5---5--5---5---5----|
--------------------5-5--5-5-5-------|
You make me feel like I'm free again


Refrain
-------------------------------------|
-------3------3------3------3--------|
------2-2----2-2----2-2----2-2-------|
-----4---4--4---4--4---4--4---4------|
----2------2------2------2-----------|
-------------------------------------|
Let me kiss you
-------------------------------------|
-------------------------------------|
-------7------7------7------7--------|
------7-7----7-7----7-7----7-7-------|
-----5---5--5---5--5---5--5---5------|
----5------5------5------5-----------|
Let me hold you

2x..

[ Tab from: http://www.guitaretab.com/k/killing-me-inside/203374.html ]
Chorus
-------------------------------------|
-------7------7------7------7--------|
------7-7----7-7----7-7----7-7-------|
-----7---7--7---7--7---7--7---7------|
----5------5------5------5-----------|
-------------------------------------|
Every step you take
Every word you
-------------------------------------|
-------5------5------5------5--------|
------6-6----6-6----6-6----6-6-------|
-----7---7--7---7--7---7--7---7------|
----4------4------4------4-----------|
-------------------------------------|
say
And every game you play
I'll be watching you

(1st Guitar)
Strumming
--------------------------------------------------------|
--------------------------------------------------------|
--------------------------------------------------------|
----222222-4-5----77777777777777777777----222222-4-5----|
----222222-4-5----55555555555555555555----222222-4-5----|
----222222-4-5----------------------------222222-4-5----|
(2nd Guitar)
-------------------------------------|
----7-8-10--7-8-10--7-8-10--7-8-10---|
-------------------------------------|
-------------------------------------|
-------------------------------------|
-------------------------------------|
Cause my love for you forever....


Verse 2

(repeat INTRO)


(repeat VERSE 1)
I rip my heart out
Want this love from you
'Cause you are the one untill my last breathe
I can pretend the feeling for you
You make me feel like I'm free again


(repeat REFRAIN)
Let me kiss you
Let me hold you


(repeat CHORUS)
Every step you take
Every word you say
And every game you play
I'll be watching you....


Bridge
(strumming)
-----------------------------------------------------|
----33333333332222222223-----------------------------|
----44444444444444444444-------7777777777777777------|
----44444444444444444444-------5555555555555555------|
----22222222222222224444-------5555555555555555------|
-------------------------------5555555555555555------|
Cause my love for you forever, forever
------------------------------------------------------------|
----33333333332222222223------------------------------------|
----44444444444444444444-------77777777777------99999999----|
----44444444444444444444-------55555555555------77777777----|
----22222222222222224444-------55555555555------77777777----|
-------------------------------55555555555------77777777----|
forever, forever

-----------------------------|
-----------------------------|
----------777776666699999----|
----000000000000000000000----|
----000000000000000000000----|
----000000000000000000000----|
Every step you take,
Every word you

-----------------------------|
-----------------------------|
---------777776666699999-----|
----55555555555555555555-----|
----55555555555555555555-----|
----55555555555555555555-----|
say
And every game you play
I'll be watching
------------------------------|
------------------------------|
----11,11,11,11,11,11,11,11---|
----999999999999999-----------|
----999999999999999-----------|
----999999999999999-----------|
you....

(2x....)

------------------------------|
------------------------------|
------------------------------|
----0-------------------------|
----0-------------------------|
----0-------------------------|
forever..........
Related for Forever tab
Forever chords by Killing Me Inside