Song name
# A B C D E F G H I J K L M N O P Q R S T U V W X Y Z

Killradio - Amerika tab

Killradio - A.M.E.R.I.K.A. 
Album: Raised on whipped cream
By CaptainPSP/Kart0ff3lApf3l
I think the whole guitar ist tuned a half step down.
If something is wrong mail me: jgpliskin@arcor.de


Verse - Light Disortion                        
e|------------------------------------------------|
B|------------------------------------------------|
G|-3--336--6699-3-33---333-3366-3-33--XXX---------|
D|-3--336--6699-3-33---333-3366-3-33--XXX---------|
A|-1--114--4477-1-11---111-1144-1-11--XXX---------|  X5
E|------------------------------------------------|


e|------------------------------------------------|
B|------------------------------------------------|
G|-3--336--6699-3-33---333-3366-3-33--------------|
D|-3--336--6699-3-33---333-3366-3-33--------------|
A|-1--114--4477-1-11---111-1144-1-11--------------|  X1
E|------------------------------------------------|

Refrain - Heavy Disortion
e|------------------------------------------------|
B|------------------------------------------------|
G|-3333-6666-99933333-3333-66633333---------------|
D|-3333-6666-99933333-3333-66633333---------------|
A|-1111-4444-77711111-1111-44411111---------------|  X2
E|------------------------------------------------|

Verse - Light Disortion 
e|------------------------------------------------|
B|------------------------------------------------|
G|-3--336--6699-3-33---333-3366-3-33--XXX---------|
D|-3--336--6699-3-33---333-3366-3-33--XXX---------|
A|-1--114--4477-1-11---111-1144-1-11--XXX---------|  X3
E|------------------------------------------------|

e|------------------------------------------------|
B|------------------------------------------------|
G|-3--336--6699-3-33---333-3366-3-33--------------|
D|-3--336--6699-3-33---333-3366-3-33--------------|
A|-1--114--4477-1-11---111-1144-1-11--------------|  X1
E|------------------------------------------------|

Refrain - Heavy Disortion
e|------------------------------------------------|
B|------------------------------------------------|
G|-3333-6666-99933333-3333-66633333---------------|
D|-3333-6666-99933333-3333-66633333---------------|
A|-1111-4444-77711111-1111-44411111---------------|  X2
E|------------------------------------------------|

BRIDGE - Heavy Disortion 
e|--------------------------------------------------------|
B|--------------------------------------------------------|
G|-33333333-33--33333333-3-3--33333333-3-3--99999999-9-9--|
D|-33333333-33--33333333-3-3--33333333-3-3--99999999-9-9--|
A|-11111111-11--11111111-1-1--11111111-1-1--77777777-7-7--|  X2
E|--------------------------------------------------------|

Refrain - Heavy Disortion
e|------------------------------------------------|
B|------------------------------------------------|
G|-3333-6666-99933333-3333-66633333---------------|
D|-3333-6666-99933333-3333-66633333---------------|
A|-1111-4444-77711111-1111-44411111---------------|  X2
E|------------------------------------------------|


End 
e|----------|
B|----------|
G|-333------|
D|-333------|
A|-111------|  X1
E|----------|
Tap to rate this tab
# A B C D E F G H I J K L M N O P Q R S T U V W X Y Z