Killswitch Engage - Reckoning tab

-------------------------------------------------------------------------------
			     Reckoning - Killswitch Engage
-------------------------------------------------------------------------------


I used a lot from Chris Tranmer (face_the_fear) and just fixed and added parts. He 
hasn't been on for a while so I doubt he would make corrections so here you go.

Hope it is correct

Also, I got some of this from watching Metal Reda.
Tuning: Drop C

Intro Riff 1 x2

D|----------------------------------------------------------------------------|
A|----------------------------------------------------------------------------|
F|----------------------------------------------------------------------------|
C|----------------------------------------------------------------------------|
G|-5-5-5-5-5-5-5-5-5-5-5-5-7-7-7-7-7-7-7-7-7-7-7-7-8-8-8-8-8-8-8-8-8-8-8-8----|
C|----------------------------------------------------------------------------|

D|----------------------------------------------------------------------------|
A|----------------------------------------------------------------------------|
F|----------------------------------------------------------------------------|
C|-10-10-10-10-10-10-10-10-10-10-10-10-8-10-10-10-10-10-10-10-10-10-10-10-----|
G|----------------------------------------------------------------------------|
C|----------------------------------------------------------------------------|

D|----------------------------------------------------------------------------|
A|----------------------------------------------------------------------------|
F|----------------------------------------------------------------------------|
C|8-8-8-8-7-7-7-7-------------------------------------------------------------|
G|----------------8-8-8-8-8-8-8-8-8-8-8-8-7-7-7-7-7-7-7-7-7-7-7-7-------------|
C|----------------------------------------------------------------------------|

Intro Riff 2 x2

D|------------------------------------------------------------------------------|
A|------------------------------------------------------------------------------|
F|------------------------------------------------7-7-7-7-7-7-7-7-7-7-7-7-6-----|
C|0-----------2-----------3-----------7-----------------------------------------|
G|0-0-0-0-0-0-2-2-2-2-2-2-3-3-3-3-3-3-7-7-7-7-7-7-5-5-5-5-5-5-5-5-5-5-5-5-4-----|
C|0-0-0-0-0-0-2-2-2-2-2-2-3-3-3-3-3-3-7-7-7-7-7-7-------------------------------|
   PM--------  PM--------  PM--------  PM---------------------------------------|

D|----------------------------------------------------------------------------|
A|----------------------------------------------------------------------------|
F|6-6-6-6-6-------------------------------------------------------------------|
C|----------7-7-7-7-7-7-------------------------------------------------------|
G|4-4-4-4-4-------------------------------------------------------------------|
C|----------7-7-7-7-7-7-------------------------------------------------------|


Verse Riff x2

D|------------------------------------------------------------------------------|
A|------------------------------------------------------------------------------|
F|------------------------------------------------------------------------------|
C|------7-----------7-----------5-----------5-----------10---------10-----------|
G|------5-----------5-----------3-----------3-----------8----------10-----------|
C|0-0-0-------0-0-0-------3-3-3-3-----3-3-3-3-----8-8-8-8----8-8-8-8------------|
 PM----       PM----      PM----      PM----      PM----     PM-----------------|

D|------------------------------------------------------------------------------|
A|------------------------------------------------------------------------------|
F|------------------------------------------------------------------------------|
C|------10----------10----------------------------------------------------------|
G|------7-----------7-----------------------------------------------------------|
C|0-0-0-------0-0-0-------------------------------------------------------------|
 PM----       PM----------------------------------------------------------------|


Chorus Riff x2

D|----------------------------------------------------------------------------|
A|----------------------------------------------------------------------------|
F|----------------------------------------------------------------------------|
C|-7p0h5h7p0h7/10p0h7p0h5p0-h7p0h5h7p0h7/12h7p0h5p0-7/10-8-7------------------|
G|------------------------------------------------------------8~~7~-----------|
C|----------------------------------------------------------------------------|

D|----------------------------------------------------------------------------|
A|----------------------------------------------------------------------------|
F|-7p0h5h7p0h7/10p0h7p0h5p0-h7p0h5h7p0h7/12h7p0h5p0-7/14-12-10-10-9-----------|
C|----------------------------------------------------------------------------|
G|----------------------------------------------------------------------------|
C|----------------------------------------------------------------------------|


Intro Riff 1 x2

D|----------------------------------------------------------------------------|
A|----------------------------------------------------------------------------|
F|----------------------------------------------------------------------------|
C|----------------------------------------------------------------------------|
G|-5-5-5-5-5-5-5-5-5-5-5-5-7-7-7-7-7-7-7-7-7-7-7-7-8-8-8-8-8-8-8-8-8-8-8-8----|
C|----------------------------------------------------------------------------|

D|----------------------------------------------------------------------------|
A|----------------------------------------------------------------------------|
F|----------------------------------------------------------------------------|
C|-10-10-10-10-10-10-10-10-10-10-10-10-8-10-10-10-10-10-10-10-10-10-10-10-----|
G|----------------------------------------------------------------------------|
C|----------------------------------------------------------------------------|

D|----------------------------------------------------------------------------|
A|----------------------------------------------------------------------------|
F|----------------------------------------------------------------------------|
C|8-8-8-8-7-7-7-7-------------------------------------------------------------|
G|----------------8-8-8-8-8-8-8-8-8-8-8-8-7-7-7-7-7-7-7-7-7-7-7-7-------------|
C|----------------------------------------------------------------------------|


Verse Riff x2

D|------------------------------------------------------------------------------|
A|------------------------------------------------------------------------------|
F|------------------------------------------------------------------------------|
C|------7-----------7-----------5-----------5-----------10---------10-----------|
G|------5-----------5-----------3-----------3-----------8----------10-----------|
C|0-0-0-------0-0-0-------3-3-3-3-----3-3-3-3-----8-8-8-8----8-8-8-8------------|
 PM----       PM----      PM----      PM----      PM----     PM-----------------|

D|------------------------------------------------------------------------------|
A|------------------------------------------------------------------------------|
F|------------------------------------------------------------------------------|
C|------10----------10----------------------------------------------------------|
G|------7-----------7-----------------------------------------------------------|
C|0-0-0-------0-0-0-------------------------------------------------------------|
 PM----      PM-----------------------------------------------------------------|


Chorus Riff x2


D|----------------------------------------------------------------------------|
A|----------------------------------------------------------------------------|
F|----------------------------------------------------------------------------|
C|-7p0h5h7p0h7/10p0h7p0h5p0-h7p0h5h7p0h7/12h7p0h5p0-7/10-8-7------------------|
G|------------------------------------------------------------8~~7~-----------|
C|----------------------------------------------------------------------------|

D|----------------------------------------------------------------------------|
A|----------------------------------------------------------------------------|
F|-7p0h5h7p0h7/10p0h7p0h5p0-h7p0h5h7p0h7/12h7p0h5p0-7/14-12-10-10-9-----------|
C|----------------------------------------------------------------------------|
G|----------------------------------------------------------------------------|
C|----------------------------------------------------------------------------|


Bridge Riff x3

D|------------------------------------------------------------------------------|
A|------------------------------------------------------------------------------|
F|------------------------------------------------------------------------------|
C|-7p0-7p0------7p0-7p0-----8p0-8p0-------7p0-7p0-----10p0-10p0-----7p0-7p0-----|
G|------------------------------------------------------------------------------|
C|---------7-7----------8-8---------10-10---------0-0-----------0-0-------------|
          PM--         PM--        PM---         PM--         PM----------------|

D|----------------------------------------------------------------------------|
A|----------------------------------------------------------------------------|
F|----------------------------------------------------------------------------|
C|-----10p0-10p0--------------------------------------------------------------|
G|----------------------------------------------------------------------------|
C|-7-7------------------------------------------------------------------------|
  PM--


Bridge Riff End

D|----------------------------------------------------------------------------|
A|----------------------------------------------------------------------------|
F|----------------------------------------------------------------------------|
C|-10p0-10p0-------10p0-10p0----------12p0-12p0----------12p0-12p0------------|
G|----------------------------------------------------------------------------|
C|-----------8-8-8-----------10-10-10-----------10-10-10----------------------|

D|----------------------------------------------------------------------------|
A|----------------------------------------------------------------------------|
F|----------------------------------------------------------------------------|
C|-------12p0-12p0-------15p0-15p0-------10p0-10p0-------15p0-15p0------------|
G|---------------------------------0-0-0-----------0-0-0----------------------|
C|-0-0-0----------0-0-0-------------------------------------------------------|

D|----------------------------------------------------------------------------|
A|----------------------------------------------------------------------------|
F|----------------------------------------------------------------------------|
C|-------10p0-10p0-------10p0-10p0----------12p0-12p0---------12p0-12p0-------|
G|----------------------------------------------------------------------------|
C|-8-8-8-----------8-8-8-----------10-10-10-----------10-10-10----------------|

D|------------------------------------------------------------------------------|
A|------------------------------------------------------------------------------|
F|------------------------------------------------------------------------------|
C|------------------------------------------------------------------------------|
G|--5p0-5p0-----5p0-5p0-------5p0-5p0-----5p0-5p0-------------------------------|
C|----------0-0-----------0-0---------0-0---------------------------------------|
           PM--         PM--        PM------------------------------------------|



Chorus Riff x2

D|----------------------------------------------------------------------------|
A|----------------------------------------------------------------------------|
F|----------------------------------------------------------------------------|
C|-7p0h5h7p0h7/10p0h7p0h5p0-h7p0h5h7p0h7/12h7p0h5p0-7/10-8-7------------------|
G|------------------------------------------------------------8~~7~-----------|
C|----------------------------------------------------------------------------|

D|----------------------------------------------------------------------------|
A|----------------------------------------------------------------------------|
F|-7p0h5h7p0h7/10p0h7p0h5p0-h7p0h5h7p0h7/12h7p0h5p0-7/14-12-10-10-9-----------|
C|----------------------------------------------------------------------------|
G|----------------------------------------------------------------------------|
C|----------------------------------------------------------------------------|





Outro


D|----------------------------------------------------------------------------|
A|----------------------------------------------------------------------------|
F|----------------------------------------------------------------------------|
C|-7p0h5h7p0h7/10p0h7p0h5p0-h7p0h5h7p0h7/12h7p0h5p0---------------------------|
G|----------------------------------------------------------------------------|
C|----------------------------------------------------------------------------|

I realized at the end of this that the part in the chorus riff where you play in the F 
instead of the C may be a second guitar recorded in. But there is both the C version and 
F version in the 2nd and 4th time you repeat the riff. So whether or not you play 
it is a matter of preference.

Hope all is correct, if you see a problem go ahead and comment below. I will be here to 
correct and change, as well as give due credit.

Once again most of this tab was made by Chris Tranmer (face_the_fear) and parts are from 
watching Metal Reda, im just here to supply a more correct tab. Hope this helps.
Tap to rate this tab
 
# A B C D E F G H I J K L M N O P Q R S T U V W X Y Z