Song name
# A B C D E F G H I J K L M N O P Q R S T U V W X Y Z

Killswitch Engage - This Fire Burns tab

Help us improve GuitareTab! Take a short survey!
Hopefully People Find This Usefull And Let Me Know What You Think

Guitar 1 - CGCFAD
Guitar 2 - CGCFAD

Intro/Verse/Outro
Guitar 1
D|--------------------------------------------------------|
A|--------------------------------------------------------|
F|--------------------------------------------------------|
C|------------------------------------------5-------------|
G|------------------------------------------3-------------|
C|-0h2-2-2-2-2-2-2-5p2-0-0--2*---0-0-2--0-0---0-0-0-0-0-0-|
       . . . . . .     . .       . . .  . .   . . . . . .
D|---------------------------------------------------------|
A|---------------------------------------------------------|
F|---------------------------------------------------------|
C|-------------------------5-5-----7-7---------------------|
G|-------------------------3-3-----5-5-x-x-----------------|
C|-0h2-2-2-2-2-2-2-5p2-0-0-----0-0---------2p0-0-0-0-0-0-0-|
       . . . . . .     . .     . .             . . . . . .
Guitar 2
D|----------------------------------------------------------|
A|----------------------------------------------------------|
F|-------------------------9-9-----11-11--------------------|
C|----------------------------------------------------------|
G|-------------------------7-7-----9--9-x-x-----------------|
C|-0h2-2-2-2-2-2-2-5p2-0-0-----0-0----------2p0-0-0-0-0-0-0-|
       . . . . . .     . .     . .              . . . . . .
Pre Chorus
Guitar 1
D|------------------------1-------|---------1-------|
A|--------------------1-------1---|-----1-------1---|
G|----------------4-4---4---4---4-|-4-4---4---4---4-|
C|--------------------------------|-----------------|
G|---------0----------------------|-----------------|
C|-0-0-0-0-0----------------------|-----------------|
   . . . . .
Chorus
Guitar 1
D|------------------|------------------|---------------------------------|
A|-----------------o|-----------------o|---------------------------------|
F|------------------|------------------|---------------------------------|
C|------------------|-5-5-5-5-5-5-5-5--|---------------------------------|
G|-2-2-2-2-2-2-2-2-o|-3-3-3-3-3-3-3-3-o|-0-0-0-0-0-0-0-0-0-0-0-----------|
C|-2-2-2-2-2-2-2-2--|------------------|-0-0-0-0-0-0-0-0-0-0-0-5-5-5-4-4-|
                                         . . . . . . . . . . .
Guitar 2
D|-7-------7--------|-7-------7--------|-10------10--------|
A|-----8-------8---o|-----8-------8---o|-----8--------8---o|
F|------------------|------------------|-------------------|
C|---9---9---9---9--|---9---9---9---9--|---9---9----9---9--|
G|-----------------o|-----------------o|------------------o|
C|------------------|------------------|-------------------|

Guitar 1
D|------------------|------------------|------------------|
A|-----------------o|-----------------o|-----------------o|
F|------------------|------------------|------------------|
C|------------------|-5-5-5-5-5-5-5-5--|------------------|
G|-2-2-2-2-2-2-2-2-o|-3-3-3-3-3-3-3-3-o|-0-0-0-0-0-0-0-0-o|
C|-2-2-2-2-2-2-2-2--|------------------|-0-0-0-0-0-0-0-0--|
                                         . . . . . . . .
Guitar 2
D|-7-------7--------|-10------10--------|-7-------7--------|
A|-----8-------8---o|-----8--------8---o|-----8--------8--o|
F|------------------|-------------------|------------------|
C|---9---9---9---9--|---9---9----9---9--|---9---9---9---9--|
G|-----------------o|------------------o|-----------------o|

Intro/Verse
Guitar 1
D|--------------------------------------------------------|
A|--------------------------------------------------------|
F|--------------------------------------------------------|
C|------------------------------------------5-------------|
G|------------------------------------------3-------------|
C|-0h2-2-2-2-2-2-2-5p2-0-0--2*---0-0-2--0-0---0-0-0-0-0-0-|
       . . . . . .     . .       . . .  . .   . . . . . .
D|---------------------------------------------------------|
A|---------------------------------------------------------|
F|---------------------------------------------------------|
C|-------------------------5-5-----7-7---------------------|
G|-------------------------3-3-----5-5-x-x-----------------|
C|-0h2-2-2-2-2-2-2-5p2-0-0-----0-0---------2p0-0-0-0-0-0-0-|
       . . . . . .     . .     . .             . . . . . .
Guitar 2
D|----------------------------------------------------------|
A|----------------------------------------------------------|
F|-------------------------9-9-----11-11--------------------|
C|----------------------------------------------------------|
G|-------------------------7-7-----9--9-x-x-----------------|
C|-0h2-2-2-2-2-2-2-5p2-0-0-----0-0----------2p0-0-0-0-0-0-0-|
       . . . . . .     . .     . .              . . . . . .
Pre Chorus
1&2
D|----------------------------------------------------------|
A|----------------------------------------------------------|
F|-------------------------9-9-----11-11--------------------| Something
C|----------------------------------------------------------| Similar
G|-------------------------7-7-----9--9-x-x-----------------|
C|-0h2-2-2-2-2-2-2-5p2-0-0-----0-0----------2p0-0-0-0-0-0-0-|
       . . . . . .     . .     . .              . . . . . .
Chorus
Guitar 1
D|------------------|------------------|---------------------------------|
A|-----------------o|-----------------o|---------------------------------|
F|------------------|------------------|---------------------------------|
C|------------------|-5-5-5-5-5-5-5-5--|---------------------------------|
G|-2-2-2-2-2-2-2-2-o|-3-3-3-3-3-3-3-3-o|-0-0-0-0-0-0-0-0-0-0-0-----------|
C|-2-2-2-2-2-2-2-2--|------------------|-0-0-0-0-0-0-0-0-0-0-0-5-5-5-4-4-|
                                         . . . . . . . . . . .
Guitar 2
D|-7-------7--------|-7-------7--------|-10------10--------|
A|-----8-------8---o|-----8-------8---o|-----8--------8---o|
F|------------------|------------------|-------------------|
C|---9---9---9---9--|---9---9---9---9--|---9---9----9---9--|
G|-----------------o|-----------------o|------------------o|
C|------------------|------------------|-------------------|

Guitar 1
D|------------------|------------------|------------------|
A|-----------------o|-----------------o|-----------------o|
F|------------------|------------------|------------------|
C|------------------|-5-5-5-5-5-5-5-5--|------------------|
G|-2-2-2-2-2-2-2-2-o|-3-3-3-3-3-3-3-3-o|-0-0-0-0-0-0-0-0-o|
C|-2-2-2-2-2-2-2-2--|------------------|-0-0-0-0-0-0-0-0--|
                                         . . . . . . . .
Guitar 2
D|-7-------7--------|-10------10--------|-7-------7--------|
A|-----8-------8---o|-----8--------8---o|-----8--------8--o|
F|------------------|-------------------|------------------|
C|---9---9---9---9--|---9---9----9---9--|---9---9---9---9--|
G|-----------------o|------------------o|-----------------o|
Pre Chorus
Guitar 1
D|------------------------1-------|---------1-------|
A|--------------------1-------1---|-----1-------1---|
G|----------------4-4---4---4---4-|-4-4---4---4---4-|
C|--------------------------------|-----------------|
G|---------0----------------------|-----------------|
C|-0-0-0-0-0----------------------|-----------------|
   . . . . .
Bridge
1&2
D|---------------|--------------|-----------------|
A|--------------o|--------------|-----------------|
F|---------------|--------------|-----------------|
C|----------3----|----------3---|-------1---2---1-|
G|-3-2--2-3-3-2-o|-3-1--1-2-3-1-|-2-----1---2---1-|
C|-3-2--2-3---2--|-3-1--1-2---1-|-2-1-1---1---1---|

Chorus
Guitar 1
D|------------------|------------------|---------------------------------|
A|-----------------o|-----------------o|---------------------------------|
F|------------------|------------------|---------------------------------|
C|------------------|-5-5-5-5-5-5-5-5--|---------------------------------|
G|-2-2-2-2-2-2-2-2-o|-3-3-3-3-3-3-3-3-o|-0-0-0-0-0-0-0-0-0-0-0-----------|
C|-2-2-2-2-2-2-2-2--|------------------|-0-0-0-0-0-0-0-0-0-0-0-5-5-5-4-4-|
                                         . . . . . . . . . . .
Guitar 2
D|-7-------7--------|-7-------7--------|-10------10--------|
A|-----8-------8---o|-----8-------8---o|-----8--------8---o|
F|------------------|------------------|-------------------|
C|---9---9---9---9--|---9---9---9---9--|---9---9----9---9--|
G|-----------------o|-----------------o|------------------o|
C|------------------|------------------|-------------------|

Guitar 1
D|------------------|------------------|------------------|
A|-----------------o|-----------------o|-----------------o|
F|------------------|------------------|------------------|
C|------------------|-5-5-5-5-5-5-5-5--|------------------|
G|-2-2-2-2-2-2-2-2-o|-3-3-3-3-3-3-3-3-o|-0-0-0-0-0-0-0-0-o|
C|-2-2-2-2-2-2-2-2--|------------------|-0-0-0-0-0-0-0-0--|
                                         . . . . . . . .
Guitar 2
D|-7-------7--------|-10------10--------|-7-------7--------|
A|-----8-------8---o|-----8--------8---o|-----8--------8--o|
F|------------------|-------------------|------------------|
C|---9---9---9---9--|---9---9----9---9--|---9---9---9---9--|
G|-----------------o|------------------o|-----------------o|

Intro/Verse/Outro
Guitar 1
D|--------------------------------------------------------|
A|--------------------------------------------------------|
F|--------------------------------------------------------|
C|------------------------------------------5-------------|
G|------------------------------------------3-------------|
C|-0h2-2-2-2-2-2-2-5p2-0-0--2*---0-0-2--0-0---0-0-0-0-0-0-|
       . . . . . .     . .       . . .  . .   . . . . . .
D|---------------------------------------------------------|
A|---------------------------------------------------------|
F|---------------------------------------------------------|
C|-------------------------5-5-----7-7---------------------|
G|-------------------------3-3-----5-5-x-x-----------------|
C|-0h2-2-2-2-2-2-2-5p2-0-0-----0-0---------2p0-0-0-0-0-0-0-|
       . . . . . .     . .     . .             . . . . . .
Guitar 2
D|----------------------------------------------------------|
A|----------------------------------------------------------|
F|-------------------------9-9-----11-11--------------------|
C|----------------------------------------------------------|
G|-------------------------7-7-----9--9-x-x-----------------|
C|-0h2-2-2-2-2-2-2-5p2-0-0-----0-0----------2p0-0-0-0-0-0-0-|
       . . . . . .     . .     . .              . . . . . .

I May Be Missing A Couple Parts Or Have To Many Parts But If Your Smart People Youll Be 
To Figure It Out

Well Let Me Know What You Think
Related for This Fire Burns tab